>
 >
Butlers Bag

Butlers Bag Guitar Tabs

Vai Steve - Butlers Bag chords, tabs, tablatures, lyrics

Guitar lessons | Add/correct | Request | Top 50 tabs Artists:  A B C D E F G H I J K L M N O P Q R S T U V W X Y Z 0-9

Butlers Bag Guitar Tabs – Vai Steve

CD, Sheet music, Poster

Do you like Butlers Bag? Share with your friends now
Tabs
E||--------------------------|-----------------------|
B||--------------------------|-----------------------|
G||----------2h0-------------|-----------------------|
D||--------------2-5-2-0-----|-----------------------|
A||----------------------2-2-|-----------------------|
D||--------------------------|--5-3---3b-------3--x--|


                                                            
------------------------------|--------------0-------------|
--15------------15------------|--------------17------------|
--14r-----------14b-----------|--------------16------------|
------------------------------|----------------------------|
------------------------------|----------------------------|
------------------------------|----------------------------|


                                                            
--0-------------------------|------------------------------|
--17------------------------|------------------------------|
--16b-----------------------|------------16b---------------|
----------------------------|------------------------19----|
----------------------------|------------------------------|
----------------------------|------------------------------|


                                                   
------17------17------17------17------17------17--|
--20b-----20b-----20b-----20b-----20b-----20b-----|
--------------------------------------------------|
--------------------------------------------------|
--------------------------------------------------|
--------------------------------------------------|


                                                     
------17------17-----17--21--21h19-17--21h17-0--16--|
--20b-----20b-----x---------------------------------|
----------------------------------------------------|
----------------------------------------------------|
----------------------------------------------------|
----------------------------------------------------|


                                                   
--16------18b-------------------------------------|
------19------19--17/-15------17/-15--14--12------|
--------------------------16------------------14h-|
--------------------------------------------------|
--------------------------------------------------|
--------------------------------------------------|


                                                 
------------------------------------------------|
------------------------------------------------|
--13------14h-13--------------------------------|
------14----------16h-14--12h-11----------------|
----------------------------------12/-14----14/-|
------------------------------------------------|


                                                                                
------------------------------------------|------------------------------------|
------------------------------------------|------------------------------------|
--------16t-------14t-------18t-------19t-|--------14t------11t-13------7------|
------------------------------------------|------------------------------------|
--14--------12--------16--------11--------|--12--------9--------11------5------|
------------------------------------------|------------------------------------|


                                                                              
------17h-14----------------------------|------------------------------------|
----------------------------------------|------------------------------------|
----------------16--16h---14--14----14h-|--13--------------------------------|
----------------------------------------|--------16--14----12h-12------------|
----------------------------------------|------------------------------------|
----------------------------------------|------------------------------------|


                                                                                
--------------------------------------|----------------------------------------|
----------15--------14----15----------|--15------14----15--15b---14--14----15--|
------16--16----15--15----16------16--|--16------15----16--16b---15--15----16--|
--------------------------------------|----------------------------------------|
--------------------------------------|----------------------------------------|
--------------------------------------|----------------------------------------|


                                                                              
--------------------------------------|--------------------------------------|
----------15--------14----15----------|--15----15--14----15--15----------15--|
------16--16----15--------16------16--|--------16--15----16--16--------------|
--------------------------------------|--------------------------------------|
--------------------------------------|--------------------------------------|
--------------------------------------|--------------------------------------|


                                                                            
--------------------------------------|------------------------------------|
----------20t-------19----20----------|--20t-------19----20--------20------|
------18--------18--18------------18--|--------18--------------------------|
--------------------------------------|------------------------------------|
--------------------------------------|------------------------------------|
--------------------------------------|------------------------------------|


                                                                                
----------------------------------------|--------------------------------------|
--17----15------------------------------|--------------------------------------|
--------------12h-14--12b---------------|--------------------------------------|
----------------------------14----12----|--------------------12-14-------------|
----------------------------------------|--14h-12--10--10----------------------|
----------------------------------------|--------------------------------------|


                                           
------------------------------------------|
------------------------------------------|
--14----14--12----12--14----14--12----14--|
------------------------------------------|
------------------------------------------|
------------------------------------------|


                                           
------------------------------------------|
------------------------------------------|
--14h-12h-14--14h-12h-14--14----12--------|
------------------------------------------|
------------------------------------------|
------------------------------------------|


                                                                          
--12----0--10--0--0--9----0--8----0--|--7----10--11----12----------12----|
-------------------------------------|-----------------------------------|
-------------------------------------|-----------------------------------|
-------------------------------------|-----------------------------------|
-------------------------------------|-----------------------------------|
-------------------------------------|-----------------------------------|


                                                     
--19--16--------------------------------------------|
----------17--15--14--------------------------------|
----------------------16--13--12--------------------|
----------------------------------14--12h-11--------|
----------------------------------------------14h11/|
----------------------------------------------------|


                                                                          
------------------------------14--17/-|--22------22------22b---------0--||
--------------------------15----------|---------------------------------||
----------------------13--------------|---------------------------------||
-----------9/---14--------------------|---------------------------------||
--7-----------------------------------|---------------------------------||
--------------------------------------|---------------------------------||



Thanks.





Comments


Popular Vai Steve tabs & chords
For The Love Of God Bass Tabs
Crossroad Tabs
Die To Live Tabs
Liberty 1 Tabs
Mysterious Murder Of Christian Terias Lover Tabs
The Audience Is Listening Tabs
The Crying Machine Tabs
The Duel 1 Tabs
Viv Woman Tabs
Warm Regards Tabs


Song lyrics



↑ Back to top | Tablatures and chords are parodies/interpretations of the original songs. You may use it for private study, scholarship, research or language learning purposes only
© 2014 AZChords.com Contact us | Privacy policy | DMCA | Add/correct tabs | Request tabs | Top 50 tabs