» » »

Boston Rain Melody Tabs (ver.1)

Artists:  A B C D E F G H I J K L M N O P Q R S T U V W X Y Z # 

Boston Rain Melody Tabs (ver.1)

Vai Steve
Rating:
0/5 (0 votes)

Hard to play? Try these video lessons and learn fast.
                
This beautiful song is in the same kind of "Sister"!!!! 
I've tabbed this song until the beginning of the solo guitar!
It's not particularly difficult to play,but however,a remark:
In the verse 2,don't forget to play the ghost notes when you slide the other notes!!!
If I can tab the rest(the solo,but that's not sure!)I send you all the tab!!!
Good work!!!

Intro

                                             s
E---------16------16--------------14-----|-------------11--------------------------------|--
B----------------------------------------|-----------------9-----------7-----------------|--
G--15h16------16------16--15--15------15-|-13\9--9h11---------8^--(8)--6----3--(3)^--(3)-|--
D----------------------------------------|-----------------------------------------------|--
A----------------------------------------|-----------------------------------------------|--
E----------------------------------------|-----------------------------------------------|--


                        s                         s                          s
E-----------<12>--<7>------------<5>-------<5>-|--------------<7>--------------|----
B---------------------------<5>-------<5>------|---------<7>-------<7>---------|----
G------4---------------------------------------|-------------------------------|----
D-4h6--6---------------6\4--(4)----------------|------6--(6)------------4------|----
A----------------------------------------------|-4/6--------------------4------|----
E----------------------------------------------|---------------------------12\-|----




Verse 1
                          
       s          s                s          s             s          s 
E--------------------------0-|------------------------|-------------------------0-|
B----------4-----4\--------0-|---------4-----4\-----0-|---------4-----4\--------0-|
G--------------------------3-|----------------------3-|-------------------------3-|-
D-----4/6-----6---------2----|----2/6-----6-----------|----4/6-----6---------2----|--
A----------------------------|------------------------|---------------------------|--
E--0-----------------2-------|-0-----------------2----|-0-----------------2-------|-


       s          s              s          s                s           s
E-------------------------|--------------------------0-|------------------------------|----
B----------4-----4\-----0-|----------4-----4\--------0-|---------4-----4\--------0----|----
G-----------------------3-|--------------------------3-|----------------------------3-|----
D-----2/6-----6-----------|-----4/6-----6---------2----|----2/6-----6---------2-------|----
A-------------------------|----------------------------|------------------------------|----
E--0-----------------2----|--0-----------------2-------|-0-----------------2----------|----


                    **                                   *
                 .......                             .........
       s                                      s             s
E-------------------------------------0-|-------------------------------|----
B----------4-----4--4--4-----------0----|---------4--4^--(4)\2--2-----0-|----
G-------------------------------3-------|-----------------------x-----3-|----
D-----4/6-----6--------------2----------|----2/6-----6^--(6)\4--4-------|----
A---------------------------------------|-------------------------------|----
E--0----------------------2-------------|-0------------------------2----|----

*pick & fingers
** pick close to the bridge



Chorus
                                                                              **
                                                                           .......
    s                             s                          s
E------------------------------|------------------------0--|--------------------------------|----
B----------0-----0-----------2-|---------0-----0--------2--|---------0-----0--0--0--------2-|----
G------------------------------|------------------------4--|------------------------------4-|----
D-------4-----4-----4-----4----|------4-----4-----4-----4--|------4-----4--------------4----|----
A----------------------0-(0)---|---------------------0-(0)-|------------------------0-(0)---|----
E--2/4-------------------------|-2/4-----------------------|-2/4----------------------------|----

** pick close to the bridge


E--------------------------0--|----
B----------2-----2---------2--|----
G------2------2-----2------4--|----
D--------------------------4--|----
A--2--(2)--------------2--(2)-|----
E-----------------------------|----




Verse 2

       s          s                s          s s
E--------------------------0-|---------------------------------------|----
B----------4-----4\--------0-|---------4-----4/7\4--2--2-----0--0----|----
G--------------------------3-|---------------x------x--x-----3-----3-|----
D-----4/6-----6---------2----|----2/6-----6--6/9\6--4--4-----2-------|----
A----------------------------|---------------------------------------|----
E--0-----------------2-------|-0--------------------------2----------|----


       s          s  s                      s    s  s              
E-------------------------------------|--------------------------------0----|----
B----------4--7--7/9-\7-----0---------|---------7/9-\7--4--2--2-----0-----0-|----
G-------------X--x----------4----4----|---------x-------x--x--x-----3-------|----
D-----2/6-----9--9/11\9-----4h6--4h6--|----4/9--9/11\9--6--4--4-----2-------|----
A------------------------7------------|-------------------------------------|----
E--0----------------------------------|-0------------------------2----------|----


                            sweeping
                            .........       s                    s    s
E-----14h16--14--7p6--------7---------|-----------------------------------0-|----
B-----14-----14--7----9--7----7-------|-------------------------------------|----
G---------------------9--9------9---8-|----8\6--6--6--6---------------------|----
D---------------------------------8---|----8\6--6--8--6--6--6----\4--4/6----|----
A-------------------------------------|------------------7--6h7p6\4---------|----
E--0----------------------------------|-0-----------------------------------|----


        s             s         s  s                     s 
E-----16/18----------------x-----------|----0-----0--0--0----0--------0-----|----
B-----14/16--12-----12/14-----14/16\14-|----0-----0--0--0----0-----0-----0--|----
G-----13/15---9--9---9/11-----11/13\11-|----9h11--9--9--8\6--6-----3--------|----
D------------------------------9/11\9--|---------------------------2--------|----
A--------------------------------------|------------------------------------|----
E--0-----------------------------------|-0----------------------2-----------|----




Chorus 2

    s                                    s           
E-------------------------------------|---------7--6--------0-------------|----
B--------------------------------4--0-|---------7-----9--0----------------|----
G------------4--------6-------6-------|---------------8--13---------------|----
D------------4--------6----6----------|-4/6--6--------6--11---------------|----
A--------x---x--6--4--0---(0)---------|------------------0------0h2--0----|----
E--2/4--(4)---------------------------|------------------0--------------0-|----


                             s s 
E--18--14--11----16--12-----7/9\7-|----------------0-|----
B--18--12---9----14--10-----5/7\5-|----------2--0--0-|----
G--16--11---8----14---9-----------|------2---------2-|----solo...
D---------------------------7/9\7-|------------------|----
A------------------------0--------|--2--(2)----------|----
E---------------------------------|------------------|----



If you have any suggestions or corrections to do,e-mail me!!!!



' - bend              example:-15'-----`(15)
` - release                   bend     release to original note
^ - bend and release                 
(2) - ghost note         <12> - Artificial Harmonic
X - percussive sound     P - Pull-off
/ - slide up             h - Hammer-on
\ - slide down           trem. - tremolo (whammy) bar
~ - vibrato
.. - note held           Note: Please read EVERYTHING above the staff
PM - palm muted                as well as in it!!
            
Hard to play? Try these video lessons and learn fast. | Correct




comments powered by Disqus
↑ Back to top | Tablatures and chords are parodies/interpretations of the original songs. You may use it for private study, scholarship, research or language learning purposes only