>
 >
Big Trouble

Big Trouble Guitar Tabs

Vai Steve - Big Trouble chords, tabs, tablatures, lyrics

Guitar lessons | Add/correct | Request | Top 50 tabs Artists:  A B C D E F G H I J K L M N O P Q R S T U V W X Y Z 0-9

Big Trouble Guitar Tabs – Vai Steve

CD, Sheet music, Poster

Do you like Big Trouble? Share with your friends now
Tabs
E||----------------------------------|-----------------------------|
B||------2-----2-----5---7-----------|--4/2---2--2----2/4/2/4/2----|
G||--------------------------6/4-2---|-----------------------------|
D||--2/4---4/2---2/6---6---4-------4-|--4/2-2----2----2/4/2/4/2----|
A||----------------------------------|-----------------------------|
E||----------------------------------|-----------------------------|


                                                                 
------0-----0-------0---0---0-----|-----------------------------|
--4-5---5/3-----------0-------0---|------7-7-7/5-5-5-14/---2----|
--------------4/6-6-------4-----4-|------8-8-8/6-6-6------------|
----------------------------------|--7/9-9-9-9/7-7-7------------|
----------------------------------|-----------------------------|
----------------------------------|-----------------------------|


                                                                    
-----------------------------------|--------------11/-7--7~-----7--|
--12-9-----------------------------|-----------9-------------------|
-------11-9------------------------|--------8----------------------|
------------11-9-------------------|-----6-------------------------|
-----------------9--------9--7--9--|--4----------------------------|
-----------------------------------|-------------------------------|


                                                    
--18h19h18h19h18---19--18h16h18---19h-18h16h18h-16~|
---------------------------------------------------|
---------------------------------------------------|
---------------------------------------------------|
---------------------------------------------------|
---------------------------------------------------|


                                                                                
--19-16-18-19-18-16-------------------------------------------------------------
--------------------19-17-16-17-19-17-16-17-16-14-16-17-16-14-------------------
--------------------------------------------------------------16-14-13-14-16-14-


                                                   
--------------------------------------------------|
--19---21h19h-17-21h16-19h14-19h16-19h6-4---2-----|
-----------------------------------------------4b-|
--------------------------------------------------|
--------------------------------------------------|
--------------------------------------------------|


                                                                     
---------------------------------|----------------------------------|
---------------------------------|--16~---16h-14h16--16--14h16-14---|
----18h16h-4h1-------------------|----------------------------------|
---------------16h4h2------------|----------------------------------|
----------------------4-4b-------|----------------------------------|
---------------------------------|----------------------------------|


                                                      
--------------------------30----------30----16h17h19-|
--17h-16h-14-----------------------------------------|
--------------16h-13h-16------13--16-----------------|
-----------------------------------------------------|
-----------------------------------------------------|
------------------------------------------0----------|


                                                                                
--21h19h17h16----------------------------------------------19h16h14-------------
--------------21h19h16h17h19-21h19h17h16h14-19h16h14----------------19h16h14----
-----------------------------------------------------18h16-------------------18h


                                                                                
-----------------------------16h14h12-------------------------------------------
--19h16h14/12-16h14h12----------------16h14h12/10-14h12h10h9h10h12-16h12h10h9---
-----------------------16h14--------------------------------------------------16


                                                                                
--------------------------------------------------------14h9h7------------------
--------------------------------------------14h9h7-------------14h9h7h5-14h7h5h4
--------------------------------14h9h6-------------14h9-------------------------
--9h11-14h11h9h7-----------------------14h9-------------------------------------
-----------------16h11h7h9-14h9-------------------------------------------------


                                                                              
------------------------------14h4h2-----------------------------------------|
------------------14h4h2-------------14h4h2----------------------------------|
--2h4h2-14h2-------------14h4---------------14h4h2---------------------------|
-------------14h4----------------------------------14h4h2--------------------|
----------------------------------------------------------14h4h2-------------|


                                                                             
------|------|------|------|------|------|------|------|------|------|------|
------|------|------|------|------|------|------|------|------|------|------|
------|------|------|------|------|------|------|------|------|------|------|
------|------|------|------|------|------|------|------|------|------|------|
------|------|------|------|------|------|------|------|------|------|------|
------|------|------|------|------|------|------|------|------|------|------|


                                                                             
------|------|------|------|------|------|------|------|------|------|------|
------|------|------|------|------|------|------|------|------|------|------|
------|------|------|------|------|------|------|------|------|------|------|
------|------|------|------|------|------|------|------|------|------|------|
------|------|------|------|------|------|------|------|------|------|------|
------|------|------|------|------|------|------|------|------|------|------|


               
------|------||
------|------||
------|------||
------|------||
------|------||
------|------||


Thanks.





Comments


Popular Vai Steve tabs & chords
Ballerina 12 2 Tabs
Blood And Glory Tabs
Brother 1 Tabs
Erotic Nightmares Tabs
For The Love Of God 1 Tabs
Genocide 2 Tabs
Sisters Tabs
The Audience Is Tabs
The Crying Machine Tabs
Warm Regards Tabs


Song lyrics



↑ Back to top | Tablatures and chords are parodies/interpretations of the original songs. You may use it for private study, scholarship, research or language learning purposes only
© 2014 AZChords.com Contact us | Privacy policy | DMCA | Add/correct tabs | Request tabs | Top 50 tabs