>
 >
Answers

Answers Guitar Tabs

Vai Steve - Answers chords, tabs, tablatures, lyrics

Guitar lessons | Add/correct | Request | Top 50 tabs Artists:  A B C D E F G H I J K L M N O P Q R S T U V W X Y Z 0-9

Answers Guitar Tabs – Vai Steve

CD, Sheet music, Poster

Do you like Answers? Share with your friends now
Tabs
Guitar 1:                                                                                                       
--5--------5--5--------5--|-----7-----9/-7--7--7-----|
--5--------5--5--------5--|-----7-----9/-7--7--7-----|
-----x--------------------|--------------------------|
-----x--x--------x--x-----|--x-----x-----------------|
--5--x--x--5--5--x--x--5--|--x--7--x--9/-7--7--7-----|
--------------------------|-----------------------0--|
                                                      
-----5-----5-----7-----9/-|--7--7--7-----------------|
-----5-----5-----7-----9/-|--7--7--7-----------------|
--------------------------|--------------------------|
--------x-----x-----7-----|-----------x--x--x--x--x--|
-----5--x--5--x--7--7--9/-|--7--7--7--x--x--x--x--x--|
--0-----------------------|--------------------------|
                                                     
--5--------5--5--------5--|-----7-----9/-7--7--7-----|
--5--------5--5--------5--|-----7-----9/-7--7--7-----|
-----x--------------------|--------------------------|
-----x--x--------x--x-----|--x-----x-----------------|
--5--x--x--5--5--x--x--5--|--x--7--x--9/-7--7--7-----|
--------------------------|-----------------------0--|
                                                     
-----5-----5-----7-----9/-|--7--7--7-----------------|
-----5-----5-----7-----9/-|--7--7--7-----------------|
--------------------------|--------------------------|
--------x-----x-----7-----|-----------x--x--x--x--x--|
-----5--x--5--x--7--7--9/-|--7--7--7--x--x--x--x--x--|
--0-----------------------|--------------------------|
                                                      
--5--------5--5--------5--|-----7-----9/-7--7--7-----|
--5--------5--5--------5--|-----7-----9/-7--7--7-----|
-----x--------------------|--------------------------|
-----x--x--------x--x-----|--x-----x-----------------|
--5--x--x--5--5--x--x--5--|--x--7--x--9/-7--7--7-----|
--------------------------|-----------------------0--|
                                                      
-----5-----5-----7-----9/-|--7--7--7-----------------|
-----5-----5-----7-----9/-|--7--7--7-----------------|
--------------------------|--------------------------|
--------x-----x-----7-----|-----------x--x--x--x--x--|
-----5--x--5--x--7--7--9/-|--7--7--7--x--x--x--x--x--|
--0-----------------------|--------------------------|
                                                      
--5--------5--5--------5--|-----7-----9/-7--7--7-----|
--5--------5--5--------5--|-----7-----9/-7--7--7-----|
-----x--------------------|--------------------------|
-----x--x--------x--x-----|--x-----x-----------------|
--5--x--x--5--5--x--x--5--|--x--7--x--9/-7--7--7-----|
--------------------------|-----------------------0--|
                                                      
-----5-----5-----7-----9/-|--7--7--7-----------------|
-----5-----5-----7-----9/-|--7--7--7-----------------|
--------------------------|--------------------------|
--------x-----x-----7-----|-----------x--x--x--x--x--|
-----5--x--5--x--7--7--9/-|--7--7--7--x--x--x--x--x--|
--0-----------------------|--------------------------|
                                                      
--5--------5--5--------5--|-----7-----9/-7--7--7-----|
--5--------5--5--------5--|-----7-----9/-7--7--7-----|
-----x--------------------|--------------------------|
-----x--x--------x--x-----|--x-----x-----------------|
--5--x--x--5--5--x--x--5--|--x--7--x--9/-7--7--7-----|
--------------------------|-----------------------0--|
                                                      
-----5-----5-----7-----9/-|--7--7--7-----------------|
-----5-----5-----7-----9/-|--7--7--7-----------------|
--------------------------|--------------------------|
--------x-----x-----7-----|-----------x--x--x--x--x--|
-----5--x--5--x--7--7--9/-|--7--7--7--x--x--x--x--x--|
--0-----------------------|--------------------------|
                                                     
--5--------5--5--------5--|-----7-----9/-7--7--7-----|
--5--------5--5--------5--|-----7-----9/-7--7--7-----|
-----x--------------------|--------------------------|
-----x--x--------x--x-----|--x-----x-----------------|
--5--x--x--5--5--x--x--5--|--x--7--x--9/-7--7--7-----|
--------------------------|-----------------------0--|
                                                     
-----5-----5-----7-----9/-|--7--7--7-----------------|
-----5-----5-----7-----9/-|--7--7--7-----------------|
--------------------------|--------------------------|
--------x-----x-----7-----|-----------x--x--x--x--x--|
-----5--x--5--x--7--7--9/-|--7--7--7--x--x--x--x--x--|
--0-----------------------|--------------------------|
                                                     
--5--------5--5--------5--|-----7-----9/-7--7--7-----|
--5--------5--5--------5--|-----7-----9/-7--7--7-----|
-----x--------------------|--------------------------|
-----x--x--------x--x-----|--x-----x-----------------|
--5--x--x--5--5--x--x--5--|--x--7--x--9/-7--7--7-----|
--------------------------|-----------------------0--|
                                                     
-----5-----5-----7-----9/-|--7--7--7-----------------|
-----5-----5-----7-----9/-|--7--7--7-----------------|
--------------------------|--------------------------|
--------x-----x-----7-----|-----------x--x--x--x--x--|
-----5--x--5--x--7--7--9/-|--7--7--7--x--x--x--x--x--|
--0-----------------------|--------------------------|
                                                      
--5--------5--5--------5--|-----7-----9/-7--7--7-----|
--5--------5--5--------5--|-----7-----9/-7--7--7-----|
-----x--------------------|--------------------------|
-----x--x--------x--x-----|--x-----x-----------------|
--5--x--x--5--5--x--x--5--|--x--7--x--9/-7--7--7-----|
--------------------------|-----------------------0--|
                                                                            
-----5-----5-----7-----9/-|--7--7--7-----------------|----------------------|
-----5-----5-----7-----9/-|--7--7--7-----------------|----------------------|
--------------------------|--------------------------|----------------------|
--------x-----x-----7-----|-----------x--x--x--x--x--|--3----5------3----5--|
-----5--x--5--x--7--7--9/-|--7--7--7--x--x--x--x--x--|--3----5------3----5--|
--0-----------------------|--------------------------|--5----3------5----3--|
                                                                      
----------------------|-----------------------|----------------------|
----------------------|-----------------------|----------------------|
----------------------|-----------------------|----------------------|
----7----5----3--5----|--3----5----3--5----3--|----5----5----3--5----|
----7----5----3--5----|--3----5----3--5----3--|----5----5----3--5----|
----5----3----5--3----|--5----3----5--3----5--|----3----3----1--3----|
                                                                     
----------------------|----------------------|-----------------------|
----------------------|----------------------|-----------------------|
----------------------|----------------------|-----------------------|
--3----5------3----5--|----7----5----3--5----|--3----5----3--5----3--|
--3----5------3----5--|----7----5----3--5----|--3----5----3--5----3--|
--5----3------5----3--|----5----3----5--3----|--5----3----5--3----5--|
                                                             
----------------------|--0----------------|------------------|
----------------------|--0----------------|------------------|
----------------------|--1----------------|------------------|
----5----5----3--5----|--4----------------|------------------|
----5----5----3--5----|--2----------------|------------------|
----3----3----1--3----|--0----------------|------------------|
                                                                               
------------------|------|--5--------5--5--------5--|-----7-----9/-7--7--7-----|
------------------|------|--5--------5--5--------5--|-----7-----9/-7--7--7-----|
------------------|------|-----x--------------------|--------------------------|
------------------|------|-----x--x--------x--x-----|--x-----x-----------------|
------------------|------|--5--x--x--5--5--x--x--5--|--x--7--x--9/-7--7--7-----|
------------------|------|--------------------------|-----------------------0--|
                                                      
-----5-----5-----7-----9/-|--7--7--7-----------------|
-----5-----5-----7-----9/-|--7--7--7-----------------|
--------------------------|--------------------------|
--------x-----x-----7-----|-----------x--x--x--x--x--|
-----5--x--5--x--7--7--9/-|--7--7--7--x--x--x--x--x--|
--0-----------------------|--------------------------|
                                                      
--5--------5--5--------5--|-----7-----9/-7--7--7-----|
--5--------5--5--------5--|-----7-----9/-7--7--7-----|
-----x--------------------|--------------------------|
-----x--x--------x--x-----|--x-----x-----------------|
--5--x--x--5--5--x--x--5--|--x--7--x--9/-7--7--7-----|
--------------------------|-----------------------0--|
                                                     
-----5-----5-----7-----9/-|--7--7--7-----------------|
-----5-----5-----7-----9/-|--7--7--7-----------------|
--------------------------|--------------------------|
--------x-----x-----7-----|-----------x--x--x--x--x--|
-----5--x--5--x--7--7--9/-|--7--7--7--x--x--x--x--x--|
--0-----------------------|--------------------------|
                                                     
--5--------5--5--------5--|-----7-----9/-7--7--7-----|
--5--------5--5--------5--|-----7-----9/-7--7--7-----|
-----x--------------------|--------------------------|
-----x--x--------x--x-----|--x-----x-----------------|
--5--x--x--5--5--x--x--5--|--x--7--x--9/-7--7--7-----|
--------------------------|-----------------------0--|
                                                      
-----5-----5-----7-----9/-|--7--7--7-----------------|
-----5-----5-----7-----9/-|--7--7--7-----------------|
--------------------------|--------------------------|
--------x-----x-----7-----|-----------x--x--x--x--x--|
-----5--x--5--x--7--7--9/-|--7--7--7--x--x--x--x--x--|
--0-----------------------|--------------------------|
                                                      
--5--------5--5--------5--|-----7-----9/-7--7--7-----|
--5--------5--5--------5--|-----7-----9/-7--7--7-----|
-----x--------------------|--------------------------|
-----x--x--------x--x-----|--x-----x-----------------|
--5--x--x--5--5--x--x--5--|--x--7--x--9/-7--7--7-----|
--------------------------|-----------------------0--|
                                                             
-----5-----5-----7-----9/-|--7--7--7-----------------|------||
-----5-----5-----7-----9/-|--7--7--7-----------------|------||
--------------------------|--------------------------|------||
--------x-----x-----7-----|-----------x--x--x--x--x--|------||
-----5--x--5--x--7--7--9/-|--7--7--7--x--x--x--x--x--|------||
--0-----------------------|--------------------------|------||
Guitar 2: 

------|------|------|------|-------------------|----------------------|
------|------|------|------|--9b---------------|--9~-------9----10----|
------|------|------|------|-------------------|----------------------|
------|------|------|------|-------------------|----------------------|
------|------|------|------|-------------------|----------------------|
------|------|------|------|-------------------|----------------------|
                                                                          
------------------------|---------------------|----------------------------|
--9h-7------------------|---------------------|--14----14--14----12----14--|
--------9--9--9/-----2--|---------------------|----------------------------|
------------------------|------------9--9--9--|----------------------------|
------------------------|---------------------|----------------------------|
------------------------|---------------------|----------------------------|
                                                                             
-------------------------|------------------------|-------------------------|
----12-------------------|------------------------|-------------------------|
----------13/-11/---9----|--11~---------9h-11h-9--|--11/-13/-11--------9----|
-------------------------|------------------------|-------------------------|
-------------------------|------------------------|-------------------------|
-------------------------|------------------------|-------------------------|
                                                               
-------------------|-------------------|----------------------|
--9b---------------|----------9b-------|--9r-7----------------|
-------------------|-------------------|--------9--9----------|
-------------------|-------------------|----------------------|
-------------------|-------------------|----------------------|
-------------------|-------------------|----------------------|
                                                                              
---------------------|----------------------------|--------------------16----|
---------------------|--15----15--15----12----15--|----17----19--19----------|
------------9--9--9--|----------------------------|--------------------------|
---------------------|----------------------------|--------------------------|
---------------------|----------------------------|--------------------------|
---------------------|----------------------------|--------------------------|
                                                                               
----------------------|------------------|------------------------------------|
--19b-----17~---------|------------------|--18--17b---17--15------------------|
----------------------|------------------|--------------------17--16--16--17--|
----------------------|------------------|------------------------------------|
----------------------|------------------|------------------------------------|
----------------------|------------------|------------------------------------|
                                                           
------------------------------|----------------------------|
------------------------------|----------------------------|
----------17h-16h-14----------|----------------------------|
----------------------17--15/-|--14----15--14----15----17--|
------------------------------|----------------------------|
------------------------------|----------------------------|
                                                                      
----------------------|------------------------|----------------------|
----------------------|------------------------|----------------------|
----------------------|------------------------|------14------12------|
----------------------|------------14------12--|----------------------|
----17----17----------|--10--------------------|----------------------|
----------------------|------------------------|----------------------|
                                                     
------------------17--15--|--15----------------------|
--17------15--------------|----------------13--15-13-|
--------------------------|----------------13--15-13-|
--------------------------|--------------------------|
--------------------------|--------------------------|
--------------------------|--------------------------|
                                                   
--21h16h14-19h16h14-21h16h14-18h16h14-19h16h14----|
-----------------------------------------------21h|
--------------------------------------------------|
--------------------------------------------------|
--------------------------------------------------|
--------------------------------------------------|
                                                   
--------------------------------------------------|
--16h14-19h16h14-21h16h14-17h16h14-19h16h14/12h14-|
--------------------------------------------------|
--------------------------------------------------|
--------------------------------------------------|
--------------------------------------------------|
                                                
-----------------------------------------------|
--16h14h12/11h12-14h12h11/9h-11--12h-11h9/7-11h|
-----------------------------------------------|
-----------------------------------------------|
-----------------------------------------------|
-----------------------------------------------|
                                                                           
-----------------------------------|-------------------|------------------|
--9h7------------------------------|-------------------|------------------|
------10h8h6-----------------------|-------------------|------------------|
-------------11h8h6----------------|-------------------|------------------|
--------------------9h6h4----------|-------------------|------------------|
--------------------------9h6h4/2--|--0----------------|------------------|
                                                                 
------------------|--------------------|------------------------|
------------------|--------------------|------------------------|
------------------|--------------14----|----------14----12--14--|
------------------|--------------------|------------------------|
------------------|--------------------|------------------------|
------------------|--------------------|------------------------|
                                                                              
----------------------|--------------------------|---------------------------|
----12----10~---------|--------13----12--10------|-------------10------------|
----------------------|----------------------12--|--10/-9--------------------|
----------------------|--------------------------|---------10------9--7------|
----------------------|--------------------------|---------------------------|
----------------------|--------------------------|---------------------------|                                                      
--------------------------|--------------------------|
----------13----------13--|----15----15r-15h---13----|
------14----------14------|--------------------------|
--------------------------|--------------------------|
--------------------------|--------------------------|
--------------------------|--------------------------|
                                                                          
--13~-----------22-22-22-22-|--22-22-22-22-22-22-22-22-22-22-22-22-22/---|
----------------------------|--------------------------------------------|
----------------------------|--------------------------------------------|
----------------------------|--------------------------------------------|
----------------------------|--------------------------------------------|
----------------------------|--------------------------------------------|
                                                                    
-------------------|----------------------|------------------------|
--9b---------------|--9~-------9----10----|--9h-7------------------|
-------------------|----------------------|--------9--9--9/-----2--|
-------------------|----------------------|------------------------|
-------------------|----------------------|------------------------|
-------------------|----------------------|------------------------|
                                                                             
---------------------|----------------------------|-------------------------|
---------------------|--14----14--14----12----14--|----12-------------------|
---------------------|----------------------------|----------13/-11/---9----|
------------9--9--9--|----------------------------|-------------------------|
---------------------|----------------------------|-------------------------|
---------------------|----------------------------|-------------------------|
                                                                      
------------------------|-------------------------|-------------------|
------------------------|-------------------------|--9b---------------|
--11~---------9h-11h-9--|--11/-13/-11--------9----|-------------------|
------------------------|-------------------------|-------------------|
------------------------|-------------------------|-------------------|
------------------------|-------------------------|-------------------|
                                                                 
-------------------|----------------------|---------------------|
----------9b-------|--9r-7----------------|---------------------|
-------------------|--------9--9----------|------------9--9--9--|
-------------------|----------------------|---------------------|
-------------------|----------------------|---------------------|
-------------------|----------------------|---------------------|
                                                        
----------------------------|--------------------16----|
--15----15--15----12----15--|----17----19--19----------|
----------------------------|--------------------------|
----------------------------|--------------------------|
----------------------------|--------------------------|
----------------------------|--------------------------|                                                                              
--------16----------16------|------16--19b---------|--9h-5--5--5-----------9h-|
--19b-------19b---------19b-|----------------------|--------------9--7h-5-----|
----------------------------|----------------------|--------------------------|
----------------------------|----------------------|--------------------------|
----------------------------|----------------------|--------------------------|
----------------------------|----------------------|--------------------------|
                                                                            
--5--5--5-----------------|--9h-5--5--5--------------|---------------------|
-----------9--7h-5-----5--|--------------9--7h-5-----|-------7--9~---------|
--------------------9-----|-----------------------9--|----9----------------|
--------------------------|--------------------------|---------------------|
--------------------------|--------------------------|---------------------|
--------------------------|--------------------------|---------------------|
                                                     
--9h-5--5--5-----------9h-|--5--5--5-----------------|
--------------9--7h-5-----|-----------9--7h-5-----5--|
--------------------------|--------------------9-----|
--------------------------|--------------------------|
--------------------------|--------------------------|
--------------------------|--------------------------|
                                                                               
--9h-5--5--5--------------|---------------------|--13h-8--8--8-------------13h-|
--------------9--7h-5-----|-------7--9----------|---------------12--10--8------|
-----------------------9--|----9----------------|------------------------------|
--------------------------|---------------------|------------------------------|
--------------------------|---------------------|------------------------------|
--------------------------|---------------------|------------------------------|
                                                              
--8--8--8------10--8----------|--13h-8--8--8-----------------|
-----------12---------12--12--|---------------12--10--8------|
------------------------------|--------------------------12--|
------------------------------|------------------------------|
------------------------------|------------------------------|
------------------------------|------------------------------|                                                       
------------------------|--13h-8--8--8-------------13h-|
--------10--12~---------|---------------12--10--8------|
----12------------------|------------------------------|
------------------------|------------------------------|
------------------------|------------------------------|
------------------------|------------------------------|                                                              
--8--8--8------10--8----------|--13h-8--8--8-----------------|
-----------12---------12--12--|---------------12--10--8------|
------------------------------|--------------------------12--|
------------------------------|------------------------------|
------------------------------|------------------------------|
------------------------------|------------------------------|
                                                           
------------------------|--24h-19--19--19--------------24h-|
--------10--12~---------|------------------23--21--19------|
----12------------------|----------------------------------|
------------------------|----------------------------------|
------------------------|----------------------------------|
------------------------|----------------------------------|                                                                     
--19--19--19----------------------|--24h-19--19--19------------------|
--------------23--21--19------19--|------------------23--21--19------|
--------------------------23------|------------------------------23--|
----------------------------------|----------------------------------|
----------------------------------|----------------------------------|
----------------------------------|----------------------------------|
                                                           
------------------------|--24h-19--19--19--------------24h-|
--------21--23~---------|------------------23--21--19------|
----23------------------|----------------------------------|
------------------------|----------------------------------|
------------------------|----------------------------------|
------------------------|----------------------------------|
                                                                     
--19--19--19----------------------|--24h-19--19--19------------------|
--------------23--21--19------19--|------------------23--21--19------|
--------------------------23------|------------------------------23--|
----------------------------------|----------------------------------|
----------------------------------|----------------------------------|
----------------------------------|----------------------------------|                                                          
------------------------|--24b-20--20--20--------------24b-|
--------21--23~---------|------------------24--22--20------|
----23------------------|----------------------------------|
------------------------|----------------------------------|
------------------------|----------------------------------|
------------------------|----------------------------------|
                                                                      
--20--20--20----------------------|--24b-20--20--20------------------|
--------------24--22--20------20--|------------------24--22--20------|
--------------------------24------|------------------------------24--|
----------------------------------|----------------------------------|
----------------------------------|----------------------------------|
----------------------------------|----------------------------------|
                                                            
------------------------|--24b-20--20--20--------------24b-|
--------20--24~---------|------------------24--22--20------|
----24------------------|----------------------------------|
------------------------|----------------------------------|
------------------------|----------------------------------|
------------------------|----------------------------------|
                                                                      
--20--20--20----------------------|--24b-20--20--20------------------|
--------------24--22--20------20--|------------------24--22--20------|
--------------------------24------|------------------------------24--|
----------------------------------|----------------------------------|
----------------------------------|----------------------------------|
----------------------------------|----------------------------------|
                                                                     
------------------|----------------------|--------------------------|
------------------|--21--------------21b-|----23----23--21----23----|
------------------|----------------------|--------------------------|
------------------|----------------------|--------------------------|
------------------|----------------------|--------------------------|
------------------|----------------------|--------------------------|
                                                                     
--------------------------|------------------|--24--------------24b-|
--21--19------------------|------------------|----------------------|
----------21--21~---------|------------------|----------------------|
--------------------------|------------------|----------------------|
--------------------------|------------------|----------------------|
--------------------------|------------------|----------------------|
                                                                           
--------24b-24----24b---|----19--19--22----21----22--|--22~---------------|
------------------------|----------------------------|--------------------|
------------------------|----------------------------|--------------------|
------------------------|----------------------------|--------------------|
------------------------|----------------------------|--------------------|
------------------------|----------------------------|--------------------|

~smashamp47





Comments


Popular Vai Steve tabs & chords
Bad Horsie (Solo) Tabs
Blood And Glory Tabs
Hand On Heart 1 Tabs
Juice Tabs
Melissa S Garden Tabs
Mysterious Murder Of Christian Terias Lover Tabs
Rescue Me Or Bury Me 1 Tabs
Sailing Ships Tabs
Sisters Tabs
The Attitude Song Tabs


Song lyrics



↑ Back to top | Tablatures and chords are parodies/interpretations of the original songs. You may use it for private study, scholarship, research or language learning purposes only
© 2014 AZChords.com Contact us | Privacy policy | DMCA | Add/correct tabs | Request tabs | Top 50 tabs