>
 >
Angel Food

Angel Food Guitar Tabs

Vai Steve - Angel Food chords, tabs, tablatures, lyrics

Guitar lessons | Add/correct | Request | Top 50 tabs Artists:  A B C D E F G H I J K L M N O P Q R S T U V W X Y Z 0-9

Angel Food Guitar Tabs – Vai Steve

CD, Sheet music, Poster

Do you like Angel Food? Share with your friends now
Tabs
Fire Garden Suite - Angel Food

						by Steve Vai


Main theme
Guitar 1 (acoustic)

E|------------------------------------------------------------]
B|*-----------------------------------------------------------]
G|----------------------------------------------2-------------]
D|*---------------------------4---------------4---------------]
A|----------------------2-4-5-----------2-4-5-------------2-4-]
E|0-0-0-0-0-0-0-0-0-0-0---------0-0-0-0-----------0-0-0-0-----]

E---------0-0-0-0-0----------|-7--7-7-9------7--7-7-9---------]
B---------5-5-5/7-7---------*|-7--7-7-7------7--7-7-7---------]
G-----2----------------------|--------------------------------]
D---4------------------------|--------------------------------]
A-5-------------------------*|--------------------------------]
E-------------------0-0-0-0--|----------0-0-0--------0-0-0----]

E--7-7-7-7-9---------9-9-9-9-7---------9-9-9-9-7--------------]
B--7-7-7-7-7---------7-7-7-7-5---------7-7-7-7-5--------------]
G-------------------------------------------------------------]
D-------------------------------------------------------------]
A-------------------------------------------------------------]
E------------0-0-0-0-----------0-0-0-0-----------0-0-0-0------]

E--7--7-7--5--------5-5-7-5--4--------------------------------]
B--5--5-5--5--------5-5-5-5--5--------------------------------]
G-------------------------------------------------------------]
D-------------------------------------------------------------]
A-------------------------------------------------------------]
E------------0-0-0-0-----------0-0-0-0-0-0-0-0-0-0-0-0-0-0-0-0]

E-------------------------------------------------------------]
B-7--------------------------------4h7p4----------------------]
G-----------6-8----------------4-6-------4-4/6----------------]
D------------------------6-5h6--------------------------6-5h6-]
A-------------------------------------------------------------]
E---0-0-0-0-----0-0-0-0-------------------------0-0-0-0-------]



E--------4/7\4------------------------------------------------]
B-4---7--4/7\4-----------------7/9-7/9--4\2--7-7--4-2/4---7/9-]
G-4---6---------4-4/6----------6/8-6/8--3\1--6-6--3-1/3---6/8-]
D---------------4-4/6-----------------------------------------]
A-------------------------------------------------------------]
E---------------------0-0-0-0---------------------------------]

E-------------|---------------0--------------------------/7-8-]
B-7/9--4--2/4-|---12-10-8-7---0------------5-7/8-10-8-7-------]
G-6/8--3--1/3-|-0-12-11-9---7/9----2/4-5-7--------------------]
D-------------|-0---------------------------------------------]
A-------------|-3---------------------------------------------]
E-------------|-2---------------------------------------------]

E---5--------------7-7/10-10----------7-------10----------13--]
B-----8-7-5-8-7----8-8/11-11-----9-10---12-13------15-16------]
G---------------7--7-7/10-10-1---9------12---------15---------]
D----------------------------2---9------12---------15---------]
A----------------------------2--------------------------------]
E----------------------------0--------------------------------]



E-14-13----13---------------------------------------10--------]
B-------16----16-15-16-15--12h16p12\11-9-11-12-11-9----12-11--]
G-------------------------------------------------------------]
D-------------------------------------------------------------]
A-------------------------------------------------------------]
E-------------------------------------------------------------]

E------------------|-0----0---0------0----0----0---0-------0--|]
B--12-11-9-11-12-11|*--12---9---12-9---11---12---7---12-11-11*|]
G------------------|------------------------------------------|]
D------------------|------------------------------------------|]
A------------------|*----------------------------------------*|]
E------------------|------------------------------------------|]

E---0---0---0-2---0---0---------|---0--------------------|re--]
B-9---7---5---4-2---0-----------|*--0-------------------*|peat]
G-------------0---------3-1---1-|---1-1h3p1---1-----1----|-4--]
D---------------------------4---|---4-------4---4-4------|----]
A-------------------------------|*--2-------------------*|time]
E-------------------------------|---0-----------------0--|-s--]

E-------------------------------------------------------------]
B-------------------------------------------------------------]
G--------------------------------------------2h4--------------]
D----------2h4---------------4h7-----4p2---------4p2/6--------]
A--4p2---------4p2---7p4---------7p5-----2h4------------------]
E------4-5---------------5h7-----------------------------0----]



E--3-|---------|----------------------------------------------]
B--3-|-piano---|-8p7p5---7------------------------------------]
G--0-|---------|-------7---7-9-6------------------------------]
D--0-|-section-|-----------------7h9p5\4---5-2----------------]
A--2-|---------|-------------------------5-----4h5------------]
E--3-|---------|-----------------------------------5h7-4h5-2h3]

E------|--------|-10-10-10-10--14--17--10-14---10/12\10----17\]
B------|-piano--|------------------------------7-/9-\7--------]
G------|--------|-7--7--7--7---11--14--7--11---7-/9-\7--------]
D------|section-|---------------------------------------------]
A------|--------|---------------------------------------------]
E-0--3-|--------|---------------------------------------------]


	  G#7M	A			 E

E-14-14--/14-14-|-0-0-0--2-4--2-4-2-2--0-0-0-0--|-0-0-0-0-----]
B---------------|*2-4-2--2-2--2-2-2-4--2-4-2-2-*|-0-0-0-0-----]
G-11-11--/11-11-|-2-2-2--2-2--2-2-2-2--1-1-1-1--|-1-1-1-1-----]
D---------------|-2-2-2--2-2--2-2-2-2--2-2-2-2--|-4-4-4-2-----]
A---------------|*0-0-0--0-0--0-0-0-0--2-2-2-2-*|-2-2-2-2-----]
E---------------|----------------------0-0-0-0--|-0-0-0-0-----]

				Eadd9

E---------------------|---2-----------------------------------]
B--back to main theme-|---0-----------------------------------]
G---------------------|---1-----------------------------------]
D---------------------|---2-----------------------------------]
A---------------------|---2-----------------------------------]
E---------------------|---0-----------------------------------]

                          TABLATURE EXPLANATION                            


----------                            ----------
----5h8--- Hammeron                   ----(8)--- Ghost Note
----------                            ----------
----5p8--- Pulloff                    ----------

----------                            ----------
----5/8--- Slide Up                   -----x---- Dead Note
----------                            ----------
----5\8--- Slide Down                 ----------

----------                            ||------|| Repeat Start & End
----5~~~-- Vibrato                    ||*----*||
----------                            ||*----*||
----------                            ||------||


----------					  ----------
--12b(14)- bend 1 step			  --12b(13)- bend 1/2 step
----------					  ----------
----------					  ----------



--------------
-12b(14)r12--- bend 1 step 
-------------- and release
--------------


		That's all !

"Remember, life is good" 
			Steve Vai





Comments


Popular Vai Steve tabs & chords
An Earth Deweler Return Tabs
Bangkok Tabs
Bledsoe Blvd Tabs
Crossroad Tabs
Damn Good 1 Tabs
Erotic Nightmares 1 Tabs
For The Love Of God (Intro) Tabs
For The Love Of God 1 Tabs
Juice Tabs
Warm Regards Tabs


Song lyrics



↑ Back to top | Tablatures and chords are parodies/interpretations of the original songs. You may use it for private study, scholarship, research or language learning purposes only
© 2014 AZChords.com Contact us | Privacy policy | DMCA | Add/correct tabs | Request tabs | Top 50 tabs