» » »

Vains Of Jenna, Mind Pollution Tabs (ver.1)

Artists:  A B C D E F G H I J K L M N O P Q R S T U V W X Y Z # 

Mind Pollution Tabs (ver.1)

Vains Of Jenna Tabs
Rating:
5/5 (2 votes)
Mind Pollution lessons Tabs too difficult? Try these video lessons and learn fast
                Sorry, but I couldn't tab the solo. Maybe tomorrow I'll give it a try :)
Look me up in Last.fm!
El_Trovyante, Surf Heil from Brazil 

Intro:
(Riff 1)
Eb----------------------------------------------------|
Bb----------------------------------------------------|
Gb-7-7-7-6-6-6-6-6-7-7-7-6-6-6-6-6-7--7-7-X-7-7-7-7-7-|
Db-9-9-9-9-9-9-9-9-9-9-9-9-9-9-9-9-7--7-7-X-7-7-7-7-7-| (x2)
Ab---------------------------------5--5-5-X-5-5-5-5-5-|
Eb----------------------------------------------------|
(Riff 2)
Eb----------------------------------------------------|
Bb----------------------------------------------------|
Gb------------------------------7--7-7-x-7-7-7-7-7----|
Db------------------------------7--7-7-x-7-7-7-7-7----|(x2)
Ab--2-2---------0-1-2-2---------5--5-5-x-5-5-5-5-5----|
Eb------0-1-2-2---------0-1-2-2-----------------------|

Verse: Riff 1

Bridge:
Eb----------------------------------|
Bb----------------------------------|
Gb------------9~-------------9~-----|
Db-----5~-----9~-----5~------9~-----|
Ab-----5~-----7~-----5~------7~-----|
Eb-----3~------------3~-------------|

Chorus: Riff 2

Rhythm for Solo:
Eb------------------|
Bb------------------|
Gb---4~--7-7--------| (x4)
Db---4~--7-7--7-7---|
Ab---2~--5-5--7-7---|
Eb------------5-5---|

Eb--------------------|
Bb--------------------|
Gb--9~---5~--------7~-| (x2)
Db--9~---5~---5~---7~-|
Ab--7~---3~---5~---5~-|
Eb------------3~------|

Little bridge after the solo:
Eb------------------------------------------------|
Bb------------------------------------------------|
Gb--9~---5~--------7~--------10~---5~-------------|
Db--9~---5~---5~---7~---7~---10~---5~---5~--9~----|
Ab--7~---3~---5~---5~---7~---8~----3~---5~--9~----|
Eb------------3~--------5~--------------3~--7~----|
            
Submit corrections

comments powered by Disqus
↑ Back to top | Vains Of Jenna Tabs for Mind Pollution. Lyrics for acoustic guitar and electric guitar. Tablatures and chords are parodies/interpretations of the original songs. You may use it for private study, scholarship, research or language learning purposes only