>
 >
Hard To Be Vain

Hard To Be Vain Bass Tabs

Vains Of Jenna - Hard To Be Vain chords, tabs, tablatures, lyrics

Guitar lessons | Add/correct | Request | Top 50 tabs Artists:  A B C D E F G H I J K L M N O P Q R S T U V W X Y Z 0-9

Hard To Be Vain Bass Tabs – Vains Of Jenna

CD, Sheet music, Poster

Do you like Hard To Be Vain? Share with your friends now
Bass TabsChordsTabsUkulele
Album:Lit Up/Let Down
Bassist:JP White

This is another awesome tune off of Vains Of Jenna's debut CD, Lit Up/Let Down. In this
some of the stuff the bass does is hard to hear, but if you listen closely, you'll hear everything.

Key:
x = Times a number
* = Let it ring
\ = Slide down
/ = Slide up

Intro
G:---------|---------|
D:---------|---------|
A:------3*-|------3*-|
E:5*-3*----|5*-3*----|

G:-------------------------------------------------------------------------------|
D:-------------------------------------------------------------------------------|
A:-----------------------2-3-4-5x13------------------------------2-3-4-5x13------|
E:5-5-5-3-5--5-3-3-3-1-3------------0-3-4-5-5-5-3-5--5-3-3-3-1-3------------0-3-4|

Verse
G:----------------------------------------------|
D:----------------------------------------------|
A:------------------------3-3-3-1-3*---3-3------|
E:5-5-5-3-5--5-3-3-3-1-3-------------------0-3-4|

G:----------------------------------------------|
D:----------------------------------------------|
A:------------------------3-3-3-1-3*---3-3------|
E:5-5-5-3-5--5-3-3-3-1-3-------------------0-3-4|

Pre-Chorus
G:------------|---------------|
D:------------|---------------|
A:------------|---------------|
E:5*--3*--1*--|5*--3*--1x16/5\|

Chorus
G:------------------------------------------------------------------|
D:--------------------123*-3-1---1------------345*------------------|
A:------------5x16-------------3---3-1------------------/7-/9/10-/12|
E:0*--3*--1*-------1*------------------3-1-3*-------0*--------------|

Verse

Pre-Chorus

Chorus

Solo
G:------------|------------|---------------------------------------|
D:------------|------------|---------------------------------------|
A:------------|------------|5x13-6-7-8x13-7-6-5x13-6-7-8x8-10x13---|
E:5*--3*--1*--|5*--3*--1*--|-------------------------------------5\|

Break

G:-------|--|
D:-------|--|
A:-------|--|
E:1x32/5\|5\|

Chorus 2
G:-----------------------------------------------------------------|
D:--------------------123*-3-1---1------------345*--3-2-0----------|
A:------------5x16-------------3---3-1--------------------3-2-3-2-3|
E:0*--3*--1*-------1*------------------3-1-3*----------------------|

Chorus 3
G:----------------------------------------------------|--|--|
D:--------------------123*-3-1---1------------345*----|--|--|
A:------------5x16-------------3---3-1----------------|--|--|
E:0*--3*--1*-------1*------------------3-1-3*-------5\|5\|5\|

End
G:---------------|
D:---------------|
A:---------3-----|
E:5--5-3-5---3-5\|

That's it. Not the easiest song, but this tab is deff. quite accurate. So you should be
to nail everything, especially since I put in order for you. Rock out. Any questions or
~Keep It Sleazy





Comments


Popular Vains Of Jenna tabs & chords
Don't Give A Damn Bass Tabs
A.S.A.D 1 Tabs
Baby's Got A Secret Tabs
Don't Give A Damn Tabs
Dont Give A Damn Intro Tabs
Dont Give A Damn Intro 1 Tabs
Enemy In Me Tabs
Enemy In Me 1 Tabs
Noones Gonna Do It For You Intro Tabs
Set It Off Intro Tabs


Song lyrics



↑ Back to top | Tablatures and chords are parodies/interpretations of the original songs. You may use it for private study, scholarship, research or language learning purposes only
© 2014 AZChords.com Contact us | Privacy policy | DMCA | Add/correct tabs | Request tabs | Top 50 tabs