>
 >
Don't Give A Damn

Don't Give A Damn Guitar Tabs

Vains Of Jenna - Don't Give A Damn chords, tabs, tablatures, lyrics

Guitar lessons | Add/correct | Request | Top 50 tabs Artists:  A B C D E F G H I J K L M N O P Q R S T U V W X Y Z 0-9

Don't Give A Damn Guitar Tabs – Vains Of Jenna

CD, Sheet music, Poster

Do you like Don't Give A Damn? Share with your friends now
Bass TabsTabs
-------------------------------------------------------------------------------
-------------------------------------------------------------------------------

Tuning: standard

This is only Nicki's part because Lizzy's should be pretty easy to
figure out just from looking at the chords Nicki uses.
It's not perfect but it's the way I play it and it sounds right.
Enjoy, it's a very fun song to play!

Intro

e|---------------------------------------------------------------------------|
B|---------------------------------------------------------------------------|
G|-6--5--3-----------------6--5--3-------------------------------------------|
D|-x--x--x--5-5--5-5-5--5--x--x--x--5-5--5-5-5--5----------------------------|
A|-4--3--1--5-5--5-5-5--5--4--3--1--5-5--5-5-5--5----------------------------|
E|----------3-3--3-3-3--3-----------3-3--3-3-3--3----------------------------|

e|---------------------------------------------------------------------------|
B|---------------------------------------------------------------------------|
G|-6--5--3-----------------6--5--3-------------------------------------------|
D|-x--x--x--3-3--3-3-3--3--x--x--x--5-5--5-5-5--5----------------------------|
A|-4--3--1--3-3--3-3-3--3--4--3--1--5-5--5-5-5--5----------------------------|
E|----------1-1--1-1-1--1-----------3-3--3-3-3--3----------------------------|

e|---------------------------------------------------------------------------|
B|-5b6p5-3-----------------5b6p5-3-------------------------------------------|
G|-5b6p5-3-----------------5b6p5-3-------------------------------------------|
D|----------5-5--5-5-5--5------------5-5--5-5-5--5---------------------------|
A|----------5-5--5-5-5--5------------5-5--5-5-5--5---------------------------|
E|----------3-3--3-3-3--3------------3-3--3-3-3--3---------------------------|

e|---------------------------------------------------------------------------|
B|-5b6p5-3-----------------5b6p5-3-------------------------------------------|
G|-5b6p5-3-----------------5b6p5-3-------------------------------------------|
D|----------3-3--3-3-3--3------------5-5--5-5-5--5---5-3---------------------|
A|----------3-3--3-3-3--3------------5-5--5-5-5--5-------5-4-3---------------|
E|----------1-1--1-1-1--1------------3-3--3-3-3--3-------------3-4-5---------|

Verse

e|---------------------------------------------------------------------------|
B|---------------------------------------------------------------------------|
G|----2-x-2-2-222-5-2-0-2-----2-x-2-2-222-5-2-0-2----------------------------|
D|----2-x-2-2-222-2-2-0-2-----2-x-2-2-222-2-2-0-2----------------------------|
A|-0--0-x-0-0-000----------0--0-x-0-0-000------------------------------------|
E|---------------------------------------------------------------------------|

e|---------------------------------------------------------------------------|
B|---------------------------------------------------------------------------|
G|-----------------2--2-xxxx-2-x-2-xxx---------------------------------------|
D|-----------------2--2-xxxx-2-x-2-xxx---------------------------------------|
A|-----------------0--0-xxxx-0-x-0-xxx---------------------------------------|
E|--3~--2b3p2b3p2~-----------------------------------------------------------|

Fill

e|---------------------------------------------------------------------------|
B|--7b8p7--5--7--5-------7b8p7--5--7--5~-------------------------------------|
G|--7b8p7--5--7--5-------7b8p7--5--7--5~-------------------------------------|
D|-----------------5-5-------------------------------------------------------|
A|---------------------------------------------------------------------------|
E|---------------------------------------------------------------------------|

Bridge - they pick scrape into it

e|---------------------------------------------------------------------------|
B|---------------------------------------------------------------------------|
G|-3------------3-------------------------6-6-6-6-6-6-6-6--------------------|
D|-3-----5------3-------------------------6-6-6-6-6-6-6-6--------------------|
A|-1-----5------1------3--3-3-3-3-3-3-----4-4-4-4-4-4-4-4--------------------|
E|-------3-------------1--1-1-1-1-1-1----------------------------------------|

Fill for bridge

e|------------------------------------|
B|------------------------------------|
G|------------------------------------|
D|------------------------------------|
A|-1----------------------------------|
E|----3--1--3-------------------------|

Chorus

e|---------------------------------------------------------------------------|
B|---------------------------------------------------------------------------|
G|-8-8-x------x-x---x---------------x-5--5-5-5-5-5-5-5--x-x------------------|
D|-8-8-x-5--5-x-x-5-x--3--3-3-3-3-3-x-5--5-5-5-5-5-5-5--x-x------------------|
A|-6-6-x-5--5-x-x-5-x--3--3-3-3-3-3-x-3--3-3-3-3-3-3-3--x-x------------------|
E|-------3--3-----3----1--1-1-1-1-1------------------------------------------|

Play twice then play this

Bridge 2

e|---------------------------------------------------------------------------|
B|---------------------------------------------------------------------------|
G|-3------------3-------3---3-3-x--5---5-5-5-5-5-5-------6---6-6-6-----------|
D|-3------------3-------3---3-3-x--5---5-5-5-5-5-5-------6---6-6-6-----------|
A|-1--1-1-1-1-1-1-1-1-1-1-1-1-1-x--3---3-3-3-3-3-3-4-4-4-4---4-4-4-----------|
E|---------------------------------------------------------------------------|

e|---------------------------------------------------------------------------|
B|---------------------------------------------------------------------------|
G|-x-x-8-8-x-----------------------------------------------------------------|
D|-x-x-8-8-x-5------3--------------------------------------------------------|
A|-x-x-6-6-x-5------3--------------------------------------------------------|
E|-----------3------1--------------------------------------------------------|

then play the first two bars of the intro along with
the little intro ending scale

then play the verse again, then the bridge, then the chorus along with bridge 2

Solo 

e|--------------------------------------------------------12-14-15-14-12-----|
B|---------10-10-10-10-8---8--8-8-8-8-10--10-10-10-----------------------15--|
G|-8b10~----9--9--9-9--7---7--7-7-7-7--9---9--9-9--12--12--------------------|
D|---------------------------------------------------------------------------|
A|---------------------------------------------------------------------------|
E|---------------------------------------------------------------------------|

e|-------------------------------------------------------------------------------------|
B|------------13-12-----------------13-12---------------13-12--------------------------|
G|-12---15-12-------15-12--12-15-12-------15--12--15-12--------15-12--12-14-12-14b~----|
D|-------------------------------------------------------------------------------------|
A|-------------------------------------------------------------------------------------|
E|-------------------------------------------------------------------------------------|

e|---------------------------------------------------------------------------|
B|---------------------------------------------------------------------------|
G|--------------------------------------------------12-----------------------|
D|-17--17--17-17--16--16--16-16--15--15--15-15--/14----14--------------------|
A|-17--17--17-17--16--16--16-16--15--15--15-15-------------------------------|
E|---------------------------------------------------------------------------|

e|----------12------------12--------------12--------------12--------------------------------------|
B|--------12--15-12-----12--15-12-------12--15-12-------12--15-12--------12-15-15b17p15b17p15b17~-|
G|-14b16-----------14b16----------14b16-----------14b16------------14b16--------------------------|
D|------------------------------------------------------------------------------------------------|
A|------------------------------------------------------------------------------------------------|
E|------------------------------------------------------------------------------------------------|

e|-15-15--------------------------------------------------------------------------|
B|------14-14-15-15-12-12-14-14---------------------------------------------------|
G|------------------------------12-12-14---14--12---------------------------------|
D|------------------------------------------------14-12---------------------------|
A|------------------------------------------------------14-13-12---10--10---------|
E|---------------------------------------------------------------12--12---12~-----|

e|------5----5-----5-----5-----5-----5-----5-----5---------------------------|
B|------5----5-----5-----5-----5-----5-----5-----5---------------------------|
G|--7b9---7b---7b9---7b9---7b9---7b9---7b9---7b9-----------------------------|
D|---------------------------------------------------------------------------|
A|---------------------------------------------------------------------------|
E|---------------------------------------------------------------------------|


e|-----5-5------6-6------7-7-------8-8-------9-------10----------------------|
B|-----5-5------6-6------7-7-------8-8-------9-------10----------------------|
G|-7b9-----8b10-----9b11-----10b12-----11b13---12b14--------3----------------|
D|----------------------------------------------------------3----------------|
A|----------------------------------------------------------1----------------|
E|---------------------------------------------------------------------------|

e|------------------------------------------------------------15-------------|
B|-5b6-5-3-5-3---5b6p5-3------------------------------18b20-18--18-15--------|
G|-5b6-5-3-5-3---5b6p5-3-------17b19-19p17-15-17b19~-----------------18-15---|
D|------------------------5--------------------------------------------------|
A|---------------------------------------------------------------------------|
E|---------------------------------------------------------------------------|

e|---------------------------------------------------------------------------|
B|---------------------------------------------------------------------------|
G|-18-17-15----18-17-15------------------------------------------------------|
D|----------17----------17~--------------------------------------------------|
A|---------------------------------------------------------------------------|
E|---------------------------------------------------------------------------|

Then go back into the chorus. After you play through the chorus
once, instead of going to the bridge, you repeat it again,
but play it like this

e|---------------------------------------------------------------------------|
B|---------------------------------------------------------------------------|
G|-8--8-8-8-8-8--------------------------------5--5-5-5-5-5-5-5--------------|
D|-8--8-8-8-8-8-5--5-5--5-5-5-5--3--3-3-3-3-3--5--5-5-5-5-5-5-5--------------|
A|-6--6-6-6-6-6-5--5-5--5-5-5-5--3--3-3-3-3-3--3--3-3-3-3-3-3-3--------------|
E|--------------3--3-3--3-3-3-3--1--1-1-1-1-1--------------------------------|

Repeat that and then play bridge 2

Then finally play this

e|---------------------------------------------------------------------------|
B|---------------------------------------------------------------------------|
G|---------------------------------------------------------------------------|
D|-3----3----3----3----3----3----3----3----5---------------------------------|
A|-3----3----3----3----3----3----3----3----5---------------------------------|
E|-1----1----1----1----1----1----1----1----3---------------------------------|

e|------------------------------------------|
B|------------------------------------------|
G|--6--5--3-x-------------------------------|
D|--6--5--3-x-5-----------------------------|
A|--4--3--1-x-5-----------------------------|
E|------------3-----------------------------|




| /  slide up
| \  slide down
| h  hammer-on
| p  pull-off
| ~  vibrato
| +  harmonic
| x  Mute note
===============================================================================





Comments


Popular Vains Of Jenna tabs & chords
Don't Give A Damn Bass Tabs
Hard To Be Vain Bass Tabs
A.S.A.D Tabs
A.S.A.D 1 Tabs
Ceased Emotions Tabs
Enemy In Me Tabs
Hard To Be Vain Tabs
Lit Up / Let Down Tabs
Mind Pollution Tabs
One Last Pleasure Tabs


Song lyrics



↑ Back to top | Tablatures and chords are parodies/interpretations of the original songs. You may use it for private study, scholarship, research or language learning purposes only
© 2014 AZChords.com Contact us | Privacy policy | DMCA | Add/correct tabs | Request tabs | Top 50 tabs