» » »

Vains Of Jenna, Ceased Emotions Bass tabs (ver.1)

Artists:  A B C D E F G H I J K L M N O P Q R S T U V W X Y Z # 

Ceased Emotions Bass tabs (ver.1)

Vains Of Jenna Tabs
 Rating:
4.3/5 (6 votes)
Ceased Emotions lessons Tabs too difficult? Try these video lessons and learn fast
1
                Album:Lit Up/Let Down
Bassist:JP White

This is one awesome tune. I gotta say, one of my favorite's. The band is also pretty 
but still kick ass.

Key:
x = Times a number
* = Let it ring
\ = Slide down

*Guitar Intro*

Intro
G:------------|------------|--|
D:------------|------------|--|
A:---------3x8|---------3x8|--|
E:3x16-1x8----|3x16-1x8----|3\|

Verse
G:-------|-------|-------|-------|-------|------------|------------|--|
D:-------|-------|-------|-------|-------|------------|------------|--|
A:-------|-------|-------|-------|-------|---------3x8|---------3x8|--|
E:1-2-3*\|1-2-3*\|1-2-3*\|1-2-3*\|1-2-3*\|3x16-1x8----|3x16-1x8----|3\|

G:-------|-------|-------|------------|------------|
D:-------|-------|-------|------------|------------|
A:-------|-------|-------|---------3x8|---------3x8|
E:1-2-3*\|1-2-3*\|1-2-3*\|3x16-1x8----|3x16-1x8----|

Chorus
G:------------|------------|--------|--------|--------|---|
D:------------|------------|--------|--------|--------|---|
A:---------3x8|---------3x8|------3*|------3*|------3*|---|
E:3x16-1x8----|3x16-1x8----|3*-1*---|3*-1*---|3*-1*---|3**|

Solo
G:---------|---------|---------|---------|---------|
D:---------|---------|---------|---------|---------|
A:3x16-4x16|3x16-4x16|3x16-4x16|3x16-4x16|3x16-4x16|
E:---------|---------|---------|---------|---------|

G:------------|------------|---|
D:------------|------------|---|
A:---------3x8|---------3x8|---|
E:3x16-1x8----|3x16-1x8----|3*\|

Break

G:------------|------------|------------|------------|
D:------------|------------|------------|------------|
A:---------3x8|---------3x8|---------3x8|---------3x8|
E:3x16-1x8----|3x16-1x8----|3x16-1x8----|3x16-1x8----|

End
G:--------------------|--------------------|
D:--------------------|--------------------|
A:-----3-1---3-1------|-----3-1---3-1------|
E:3--3-----3-----3-1-2|3--3-----3-----3-1-2|

G:--------------------|----------------------|
D:--------------------|----------------------|
A:-----3-1---3-1------|-----3-1---3-1--------|
E:3--3-----3-----3-1-2|3--3-----3-----3-1-2-3|

That's it. Kind of an easy song, yes, but still rocks. I already put it in order for 
~Keep It Sleazy
            
Submit corrections

comments powered by Disqus
↑ Back to top | Vains Of Jenna Bass for Ceased Emotions. Lyrics for acoustic guitar and electric guitar. 1 Tablatures and chords are parodies/interpretations of the original songs. You may use it for private study, scholarship, research or language learning purposes only