>
 >
A.S.A.D 1

A.S.A.D 1 Guitar Tabs

Vains Of Jenna - A.S.A.D 1 chords, tabs, tablatures, lyrics

Guitar lessons | Add/correct | Request | Top 50 tabs Artists:  A B C D E F G H I J K L M N O P Q R S T U V W X Y Z 0-9

A.S.A.D 1 Guitar Tabs – Vains Of Jenna

CD, Sheet music, Poster

Do you like A.S.A.D 1? Share with your friends now
TabsTabs v2
intro
E||-------10---------10--------------------------------------| second time
B||---9----------9------------7---9---7---9-7-10-7-9-10------| rythmguitar
G||-9---9----9-9---9---9-9--7---7---7---7--------------------| comes in on
D||----------------------------------------------------------| an E
A||----------------------------------------------------------|       x2
E||----------------------------------------------------------|

chorus C|EA x3 C|B

Riff 1

|----------------------------------------------------------|
|----------------------------------------------------------|
|----------------------------------------------------------|
|-2-2---4-5---5-7---7-5---5-4---2-2---4-5---5-7---7-5--10--|
|-2-2---4-5---5-7---7-5---5-4---2-2---4-5---5-7---7-5--10--|
|-0-0--2-3--3-5--5-3--3-2--0-0--2-3--3-5--5-3---8--|

Riff 2 (played in chorus)

|------------------------------------------------------------|
|---------------11------------------------11-----------------|
|--------9-----------9--------------9----------9-------------|
|---10------10--------------10--10-----10--------------------|
|------------------------------------------------------------|
|------------------------------------------------------------|


pre-vers E|G A| x2

vers E|G A| x4 

slide down two times from E in (A7-D9-G9 position) before chorus

chorus with riff 2 
riff
vers only x2
chorus with with riff 2

then the bas does riff 1 alone (drums too of course)

solo over riff 1 x2

intro

chorus x2 with lead on last chorus

E-6-7-6-7-----|  something like that and about 14 times or something
B---------8-5-|

Riff 1

|----------------------------------------------------------|
|----------------------------------------------------------|
|----------------------------------------------------------|
|-2-2---4-5---5-7---7-5---5-4--4-4--2----------------------|
|-2-2---4-5---5-7---7-5---5-4--4-4--2----------------------|
|-0-0--2-3--3-5--5-3--3-2--2-2--0----------------------|

that's all I could hear. just go crankin' away on the Eminor penta on the solo





Comments


Popular Vains Of Jenna tabs & chords
Hard To Be Vain Bass Tabs
Hard To Be Vain Chords
A.S.A.D Tabs
Ceased Emotions Tabs
Don't Give A Damn Tabs
Enemy In Me 1 Tabs
Hard To Be Vain Tabs
Lit Up / Let Down Tabs
Mind Pollution Tabs
One Last Pleasure Tabs


Song lyrics



↑ Back to top | Tablatures and chords are parodies/interpretations of the original songs. You may use it for private study, scholarship, research or language learning purposes only
© 2014 AZChords.com Contact us | Privacy policy | DMCA | Add/correct tabs | Request tabs | Top 50 tabs