» » »

X Marks The Spook Tabs (ver.1)

Artists:  A B C D E F G H I J K L M N O P Q R S T U V W X Y Z # 

X Marks The Spook Tabs (ver.1)

Vaginal Jesus
Rating:
0/5 (0 votes)

Hard to play? Try these video lessons and learn fast.
                Tuning: 1/2 Step Down

INTRO x 2    0:00 Seconds
Eb|-----------------------------------------------------------------------|
Bb|-----------------------------------------------------------------------|
Gb|-------------HOLD------------------------------HOLD--------------------|
Db|-HOLD-6/5-5---9--------------------HOLD-6/5-5---9----------------------|
Ab|--6---4/3-3---7--5-5-5--5-5-5-------6---4/3-3---7--555--555------------|
Eb|--4--------------3-3-3--3-3-3-------4--------------333--333------------|
                   PMPMPM PMPMPM                     PMPM PMPM




FAST PART    0:15
              Below riff played 3x 
           (Trem picked played very fast)
eb|------------------------------------------------------------------------|
Bb|------------------------------------------------------------------------|
Gb|------------------------------------------------------------------------|
Db|------------------6-5------6-5------6-5---------------------------------|
Ab|--------------5-6-4-3--5-6-4-3--5-6-4-3----5-6-5-3----------------------|
Eb|--------------3-4------3-4------3-4--------3-4-3-1----------------------|
                          
CONTINUED 4th time is variation
eb|------------------------------------------------------------------------|
Bb|------------------------------------------------------------------------|
Gb|------------------------------------------------------------------------|
Db|------------------6-5------6-5------6-5----5-6-5-3----------------------|
Ab|--------------5-6-4-3--5-6-4-3--5-6-4-3----5-6-5-3----------------------|
Eb|--------------3-4------3-4------3-4--------3-4-3-1----------------------|
                                             PMPMPMPM




1st VERSE   0:25
Played 4 x   PALM MUTE EVERY NOTE
eb|------------------------------------------------------------------------|
Bb|------------------------------------------------------------------------|
Gb|------------------------------------------------------------------------|
Db|------------------6-5------6-5------6-5---------------------------------|
Ab|--------------5-6-4-3--5-6-4-3--5-6-4-3----5-6-5-3----------------------|
Eb|--------------3-4------3-4------3-4--------3-4-3-1----------------------|
                PMPMPMPMPMPMPMPMPMPMPMPMPM    PMPMPMPM   




1st CHORUS      0:39
              Below riff played 3x 
           (Trem picked played very fast)
eb|------------------------------------------------------------------------|
Bb|------------------------------------------------------------------------|
Gb|------------------------------------------------------------------------|
Db|------------------6-5------6-5------6-5---------------------------------|
Ab|--------------5-6-4-3--5-6-4-3--5-6-4-3----5-6-5-3----------------------|
Eb|--------------3-4------3-4------3-4--------3-4-3-1----------------------|
                          
CONTINUED 4th time is variation
eb|------------------------------------------------------------------------|
Bb|------------------------------------------------------------------------|
Gb|------------------------------------------------------------------------|
Db|------------------6-5------6-5------6-5----5-6-5-3----------------------|
Ab|--------------5-6-4-3--5-6-4-3--5-6-4-3----5-6-5-3----------------------|
Eb|--------------3-4------3-4------3-4--------3-4-3-1----------------------|
                                             PMPMPMPM






2nd VERSE   0:50
Played 4 x   PALM MUTE EVERY NOTE
eb|------------------------------------------------------------------------|
Bb|------------------------------------------------------------------------|
Gb|------------------------------------------------------------------------|
Db|------------------6-5------6-5------6-5---------------------------------|
Ab|--------------5-6-4-3--5-6-4-3--5-6-4-3----5-6-5-3----------------------|
Eb|--------------3-4------3-4------3-4--------3-4-3-1----------------------|
                PMPMPMPMPMPMPMPMPMPMPMPMPM    PMPMPMPM 




INSTRUMENTAL BREAK   1:03
PLAYED 2X
           (Trem picked played very fast)
eb|------------------------------------------------------------------------|
Bb|------------------------------------------------------------------------|
Gb|------------------------------------------------------------------------|
Db|------------------6-5------6-5------6-5---------------------------------|
Ab|--------------5-6-4-3--5-6-4-3--5-6-4-3----5-6-5-3----------------------|
Eb|--------------3-4------3-4------3-4--------3-4-3-1----------------------|




OUTRO 4X     1:09
           (Trem picked played very fast)
eb|------------------------------------------------------------------------|
Bb|------------------------------------------------------------------------|
Gb|------------------------------------------------------------------------|
Db|------------------6-5------6-5------6-5---------------------------------|
Ab|--------------5-6-4-3--5-6-4-3--5-6-4-3----5-6-5-3----------------------|
Eb|--------------3-4------3-4------3-4--------3-4-3-1----------------------|
            
Hard to play? Try these video lessons and learn fast. | Correct




comments powered by Disqus
↑ Back to top | Tablatures and chords are parodies/interpretations of the original songs. You may use it for private study, scholarship, research or language learning purposes only