>
 >
White Power Jew

White Power Jew Guitar Tabs

Vaginal Jesus - White Power Jew chords, tabs, tablatures, lyrics

Guitar lessons | Add/correct | Request | Top 50 tabs Artists:  A B C D E F G H I J K L M N O P Q R S T U V W X Y Z 0-9

White Power Jew Guitar Tabs – Vaginal Jesus

CD, Sheet music, Poster

Do you like White Power Jew? Share with your friends now
Tabs
Vaginal Jesus
Affirmative Apartheid

Copyright (c) Unholy Records 2002
Version 1.0 - 25.6.2006


.  - palm mute           /  - slide up to
\  - slide down to       ~  - vibrato
h  - hammer on           b  - Bend
p  - pull off            Suffixes for bend
t  - tap                 f  - full bend    h - half bend
ph - pinched harmonic    q  - quarter bend t - tap bend
*  - see comment         ^  - Hold bend    r release bend
x  - Stuccatto           ~  - vibrato bend
,  - slight palm mute    () - ghost note, sustained note
"  - tremolo note        <> - Trill

Tuning is D#

Riff A1                 Riff A2             Fill
|----------------------||------------------||-------|
|----------------------||------------------||-------|
|----------------------||------------------||-------|
|----------------------||------------------||-------|
|-22223333-7--5-8--88--||-22223333-7-5-8---||-2-----|
|-00001111-5--3-6--66--||-00001111-5-3-6---||-0-----|

Riff B
|------------------------------|-----------------------------|
|------------------------------|-----------------------------|
|------------------------------|-----------------------------|
|------------------------------|-----------------------------|
|-2-2-2---3-3-3---7-5--8--5--8-|--2-2-2---3-3-3---7-5---8----|
|-0-0-0---1-1-1---5-3--6--3--6-|--0-0-0---1-1-1---5-3---6----|
  . .     . .                     . .     . .

Riff C1
|--------------------------------------------------------------|
|--------------------------------------------------------------|
|--------------------------------------------------------------|
|-4---4---4----------------------------------------------------|
|-2---2---2-5---7----7---7-5---2---2-2-2-2-2-2-2-2-2-2-2-2-2-2-|
|-----------3---5----5---5-3---0---0-0-0-0-0-0-0-0-0-0-0-0-0-0-|
                                   . . . . . . . . . . . . . .

Riff C2
|------------------------------------------|
|------------------------------------------|
|------------------------------------------|
|-4---4---4--------------------------------|
|-2---2---2-5---7----7---7-5---2-ring------|
|-----------3---5----5---5-3---0-----------|

Riff C3
|-------------------------------|
|-------------------------------|
|-------------------------------|
|-------------------------------|
|-2-2-2-2-2-2-2-2-7---7-5---2---|
|-0-0-0-0-0-0-0-0-5---5-3---0---|
  . . . . . . . .


Structure (middle means both):

Left channel          Right channel

Riff A1 x1            Fill x1
Riff A1 x1            Pickslide
           Riff A1 x3
           Riff A2 x1

           Riff A1 x4
           Riff B  x2
Riff A1 x1            Fill x1
Riff A1 x1            Down slide
           Riff A1 x3
           Riff A2 x1
                      Pickslide
           Riff A1 x4
           Riff B  x2
           Riff C1 x3
           Riff C2 x1

Riff A1 x1            Fill x1
Riff A1 x1
           Riff A1 x3
           Riff A2 x1
           
           Riff A1 x4
           Riff B  x2
           Riff C1 x3
           Riff C2 x1 (no ring)
           Riff C3 x untill fade out


END





Comments


Popular Vaginal Jesus tabs & chords
Die Homie Die Tabs
Fetch The Rope Tabs
Hooknose Tabs
I Hate Niggers Tabs
Indians Are Red Nigger Skunks Tabs
Jesus Was Nothing But A Jew Tabs
Martin Luther Coon Day Tabs
Million Monkey March Tabs
Planet Of The Apes Tabs
Wrapped In Chains Tabs


Song lyrics



↑ Back to top | Tablatures and chords are parodies/interpretations of the original songs. You may use it for private study, scholarship, research or language learning purposes only
© 2014 AZChords.com Contact us | Privacy policy | DMCA | Add/correct tabs | Request tabs | Top 50 tabs