» » »

Slave Runaway Beat Rodney Down Tabs (ver.1)

Artists:  A B C D E F G H I J K L M N O P Q R S T U V W X Y Z # 

Slave Runaway Beat Rodney Down Tabs (ver.1)

Vaginal Jesus
Rating:
5/5 (1 vote)

Tabs too difficult? Try these video lessons and learn fast.
                Vaginal Jesus
Affirmative Apartheid
Slave Runaway / Beat Rodney Down

Copyright (c) Unholy Records 2002
Version 1.0 - 21.6.2006


.  - palm mute           /  - slide up to
\  - slide down to       ~  - vibrato
h  - hammer on           b  - Bend
p  - pull off            Suffixes for bend
t  - tap                 f  - full bend    h - half bend
ph - pinched harmonic    q  - quarter bend t - tap bend
*  - see comment         ^  - Hold bend    r release bend
x  - Stuccatto           ~  - vibrato bend
,  - slight palm mute    () - ghost note, sustained note
"  - tremolo note        <> - Trill

Tuning is E

Riff A1
|-----------------------------------------------------------------|
|-----------------------------------------------------------------|
|-----------------------------------------------------------------|
|-4---------------4---------------4---------------4---------------|
|-2-------4-3-2---2-------4-3-2---2-------4-3-2---2-------4-3-2---|
|---------2-1-0-----------2-1-0-----------2-1-0-----------2-1-0---|
          . .             . .             . .             . .

Riff A2
|-----------------------------------------------------------------|
|-----------------------------------------------------------------|
|-----------------------------------------------------------------|
|-----------------------------------------------------------------|
|---------4-3-2-----------4-3-2-----------4-3-2-----------4-3-2---|
|---------2-1-0-----------2-1-0-----------2-1-0-----------2-1-0---|
          . .             . .             . .             . .
 
Riff A3
|-----------------------------------------------------------------|
|-----------------------------------------------------------------|
|-----------------------------------------------------------------|
|-4-------------------------------4-------------------------------|
|-2---------------2-0-2-0---------2---------------2-0-2-0---------|
|---------2-1-0-1---------2-1-0-2---------2-1-0-1---------2-1-0-2-|
          . . . . . . . . . . . .         . . . . . . . . . . . .

Riff Ae
|------------------------|
|------------------------|
|------------------------|
|-4------44--------------|
|-2------22-2-long ring--|
|-----------0------------|

Riff B
|---------------------------------|
|---------------------------------|
|---------------------------------|
|---------------------------------|
|-7-6-4-3-2---22222---22222---2---|
|-5-4-2-1-0---00000---00000---0---|
  . . . . 

Riff C
|---------------------------------|
|---------------------------------|
|---------------------------------|
|-----------------3-------5-------|
|-7-6-4-3-2---2-2-1---2-2-3---2---|
|-5-4-2-1-0---0-0-----0-0-----0---|
  . . . .     . .     . .

Riff C fill
|---------------------------------|
|-----------------6-------5-------|
|-----------------ph------ph------|
|---------------------------------|
|---------------------------------|
|---------------------------------|

Riff D     De (segment end) 
|---------||------|
|---------||------|
|---------||------|
|---------||------|
|-7-6-4-3-||-4----|
|-5-4-2-1-||-2----|
  . . . .

Riff E1                        Riff E2
|-----------------------------||-------------|
|-----------------------------||-------------|
|-----------------------------||-------------|
|-----------------------------||-------------|
|---0---3-2---3-2-0---0-------||---0---3-2---|
|-2---2-------------2---2-0---||-2---2-------|

Riff F1            Riff F2
|-----------------||-----------------------------|
|-----------------||-----------------------------|
|-----------------||-----------------------------|
|-5-4-2---2-------||---2---5-4---5-4-2---2-------|
|-3-2-0-4-0-4-2---||-4-0-4-3-2---3-2-0-4-0-4-2---|
|-------2---2-0---||-2---2-------------2---2-0---|

Riff G
|-----------------------------------------------------------------|
|-----------------------------------------------------------------|
|-----------------------------------------------------------------|
|-----------------------------------------------------------------|
|-4---4-4-4---4-4-4---4-4-4---4-4-4---4-4-4---4-4-4---4-4-4---2-3-|
|-2---2-2-2---2-2-2---2-2-2---2-2-2---2-2-2---2-2-2---2-2-2---0-1-|
  .   . . .   . . .   . . .   . . .   . . .   . . .   . . .   . .



Structure (middle means both):

Left Channel            Right Channel
Riff A1 x1              Riff A2 x1
            Riff A1 x1
Riff A3 x2              Riff A1 x2
            Riff A1 x1
Riff A3 x2              Riff A1 x2
            Riff A1 x1
            Riff Ae x1

            Riff B  x4
            Riff C  x4
            Riff B  x4
            Riff C  x4
            Riff B  x4
            Riff C  x4  (2nd time + Riff C fill)
            Riff D  x1
Riff E1 x1              De      x1
Riff E2 x1
            Riff F1 x1
            Riff F2 x4
            Riff G untill fadeout


END
            
Tabs too difficult? Try these video lessons and learn fast.


comments powered by Disqus
↑ Back to top | Tablatures and chords are parodies/interpretations of the original songs. You may use it for private study, scholarship, research or language learning purposes only