» » »

Vaginal Jesus, One-way Ticket To Treblinka Tabs (ver.1)

Artists:  A B C D E F G H I J K L M N O P Q R S T U V W X Y Z # 

One-way Ticket To Treblinka Tabs (ver.1)

Vaginal Jesus Tabs
 Rating:
4/5 (4 votes)
One-way Ticket To Treblinka lessons Tabs too difficult? Try these video lessons and learn fast
1
                Vaginal Jesus
Affirmative Apartheid
One-Way Ticket to Treblinka

Copyright (c) Unholy Records 2002
Version 1.0 - 21.6.2006


.  - palm mute           /  - slide up to
\  - slide down to       ~  - vibrato
h  - hammer on           b  - Bend
p  - pull off            Suffixes for bend
t  - tap                 f  - full bend    h - half bend
ph - pinched harmonic    q  - quarter bend t - tap bend
*  - see comment         ^  - Hold bend    r release bend
x  - Stuccatto           ~  - vibrato bend
,  - slight palm mute    () - ghost note, sustained note
"  - tremolo note        <> - Trill

Tuning is D#

Riff A
|-----------------------------------------------------------------|
|-----------------------------------------------------------------|
|-----------------------------------------------------------------|
|-------------------------------------4-------5-------4-----------|
|-3-3-3-2-3-3-3-2-3-3-3-2-3-3-3-2-5-6-2---5-6-3---5-6-2---4---4---|
|-1-1-1-0-1-1-1-0-1-1-1-0-1-1-1-0-3-4-----3-4-----3-4-----2---2---|
  . . . . . . . . . . . . . . . . . .     . .     . .     

Riff B
|-----------------------------------------------------------------|
|-----------------------------------------------------------------|
|-----------------------------------------------------------------|
|-------------------------------------4-------4-------4-------4---|
|-3-3-3-3-3-3-3-3-3-3-3-3-3-3-3-3-5-6-2---5-6-2---5-6-2---5-6-2---|
|-1-1-1-1-1-1-1-1-1-1-1-1-1-1-1-1-3-4-----3-4-----3-4-----3-4-----|
  . . . . . . . .

Riff C
|-----------------------------------------------------------------|
|-----------------------------------------------------------------|
|-----------------------------------------------------------------|
|----------------/1010101010101010----4-------4-------4-----------|
|-3-3-3-3-3-3-3-3/8-8-8-8-8-8-8-8-5-6-2---5-6-2---5-6-2---4---4---|
|-1-1-1-1-1-1-1-1-----------------3-4-----3-4-----3-4-----2---2---|
  . . . . .

Structure:

Riff A x4
Riff B x1
Riff C x1

Riff A x4
Riff B x1
Riff C x1


END
            
Submit corrections

comments powered by Disqus
↑ Back to top | Vaginal Jesus Tabs for One-way Ticket To Treblinka. Lyrics for acoustic guitar and electric guitar. 1 Tablatures and chords are parodies/interpretations of the original songs. You may use it for private study, scholarship, research or language learning purposes only