» » »

Vaginal Jesus, Mandatory Abortions For Niggers Tabs (ver.1)

Artists:  A B C D E F G H I J K L M N O P Q R S T U V W X Y Z # 

Mandatory Abortions For Niggers Tabs (ver.1)

Vaginal Jesus Tabs
 Rating:
3.7/5 (6 votes)
Mandatory Abortions For Niggers lessons Tabs too difficult? Try these video lessons and learn fast
1
                Vaginal Jesus
Affirmative Apartheid
Mandatory Abortions for Niggers

Copyright (c) Unholy Records 2002
Version 1.0 - 21.6.2006


.  - palm mute           /  - slide up to
\  - slide down to       ~  - vibrato
h  - hammer on           b  - Bend
p  - pull off            Suffixes for bend
t  - tap                 f  - full bend    h - half bend
ph - pinched harmonic    q  - quarter bend t - tap bend
*  - see comment         ^  - Hold bend    r release bend
x  - Stuccatto           ~  - vibrato bend
,  - slight palm mute    () - ghost note, sustained note
"  - tremolo note        <> - Trill

Tuning is D#

Riff A1 (no rings)
|-------------------------------------------------------|
|-------------------------------------------------------|
|-------------------------------------------------------|
|-------------------------------------------------------|
|----------2-2---------2-2----------2-2---------2-2-----|
|----------0-0---------0-0----------0-0---------0-0-----|

Riff A2 (no rings)
|-------------------------------------------------------|
|-------------------------------------------------------|
|-------------------------------------------------------|
|-------------------------------------------------------|
|-2--------2-2---------2-2----------2-2---------2-2-----|
|-0--------0-0---------0-0----------0-0---------0-0-----|

Riff B1
|-----------------------------------------------------------------|
|-----------------------------------------------------------------|
|-----------------------------------------------------------------|
|-----------------------------------------------------------------|
|-4-4-4-4-7\5---2-4-4-4-4-7/10--2-4-4-4-4-7\5---2-4-4-4-4-7/10--2-|
|-2-2-2-2-5\3---0-2-2-2-2-5/8---0-2-2-2-2-5\3---0-2-2-2-2-5/8---0-|

Riff B2
|-------------------------------------------------------------------|
|-------------------------------------------------------------------|
|-------------------------------------------------------------------|
|-------------------------------------------------------------------|
|-4-------7\5-----4-------7-10----4-------5-------4-------7-10------|
|-2-------5\3-----2-------5-8-----2-------3-------2-------5-8-------|

Riff C
|---------------------------------------|
|---------------------------------------|
|---------------------------------------|
|---------------------------------------|
|-4-------4-------4-------4-5-----------|
|-2-------2-------2-------2-3-----------|


Structure (middle means both):

Left Channel        Right Channel

           Riff A1 x1
Riff B1 x1          Riff B2 x1
           Riff B1 x2
           Riff C  x1
           Riff B1 x2
           Riff A2 x1

END
            
Submit corrections

comments powered by Disqus
↑ Back to top | Vaginal Jesus Tabs for Mandatory Abortions For Niggers. Lyrics for acoustic guitar and electric guitar. 1 Tablatures and chords are parodies/interpretations of the original songs. You may use it for private study, scholarship, research or language learning purposes only