» » »

Vaginal Jesus, Jesus Was Nothing But A Jew Tabs (ver.1)

Artists:  A B C D E F G H I J K L M N O P Q R S T U V W X Y Z # 

Jesus Was Nothing But A Jew Tabs (ver.1)

Vaginal Jesus Tabs
 Rating:
4/5 (4 votes)
Jesus Was Nothing But A Jew lessons Tabs too difficult? Try these video lessons and learn fast
                Vaginal Jesus - Jesus was nothing but a jew

Ive included the timing incase there is any confusion. I learned this by 
ear, if theres any comments or corrections feel free to ask



Tune 1/2 step down to Eb

INTRO 0:01
eb|------------------------------------------------------------------------|
Bb|------------------------------------------------------------------------|
Gb|------------------------------------------------------------------------|
Db|holdhold----------hold-hold----------hold-hold----------hold-hold-------|
Ab|-6--4---(4)-6-7-----6--4---(4)-6-7-----6--4---(4)-6-7-----6--4---(4)-6-7|
Eb|-4--2---(2)-4-5-----4--2---(2)-4-5-----4--2---(2)-4-5-----4--2---(2)-4-5|
           PM PMPM            PM PMPM            PM PMPM            PM PMPM    


Verse 0:10  2x
eb|------------------------------------------------------------------------|
Bb|------------------------------------------------------------------------|
Gb|-----TREMOLO-------PICK----------------TREMOLO-------PICK---------------|
Db|------------------------------------------------------------------------|
Ab|-----6666-4-6666-4-6666--4--6--7-------6666-4-6666-4-6666--4--6--7------|
Eb|-----4444-2-4444-2-4444--2--4--5-------4444-2-4444-2-4444--2--4--5------|
                           PICK ALL                          PICK ALL   
                            NOTES                             NOTES


Chorus 0:17    2x
eb|------------------------------------------------------------------------|
Bb|------------------------------------------------------------------------|
Gb|-----------------------SLIGHT-----------------------------SLIGHT--------|
Db|----HOLD----------------HOLD-HOLD------HOLD----------------HOLD-HOLD----|
Ab|-----4--------------6/7--6--7-6---------4--------------6/7--6--7-6------|
Eb|-----2-2-2-2-2-2-2--4/5--4--5-4---------2-2-2-2-2-2-2--4/5--4--5-4------|
         PMPMPMPMPMPM                       PMPMPMPMPMPM


2nd Verse 0:29   2x
eb|------------------------------------------------------------------------|
Bb|------------------------------------------------------------------------|
Gb|-----TREMOLO------PICK-----------------TREMOLO------PICK----------------|
Db|------------------------------------------------------------------------|
Ab|-----6666-4-6666-4-6666--4--6--7-------6666-4-6666-4-6666--4--6--7------|
Eb|-----4444-2-4444-2-4444--2--4--5-------4444-2-4444-2-4444--2--4--5------|
                           PICK ALL                          PICK ALL   
                            NOTES                             NOTES
2nd Chorus 0:37  2x
eb|------------------------------------------------------------------------|
Bb|------------------------------------------------------------------------|
Gb|-----------------------SLIGHT-----------------------------SLIGHT--------|
Db|----HOLD----------------HOLD-HOLD------HOLD----------------HOLD-HOLD----|
Ab|-----4--------------6/7--6--7-6---------4--------------6/7--6--7-6------|
Eb|-----2-2-2-2-2-2-2--4/5--4--5-4---------2-2-2-2-2-2-2--4/5--4--5-4------|
         PMPMPMPMPMPM                       PMPMPMPMPMPM




BRIDGE 0:50   2x
eb|------------------------------------------------------------------------|
Bb|------------------------------------------------------------------------|
Gb|------------------------------------------------------------------------|
Db|---HOLD------HOLD----------------HOLD------HOLD-------------------------|
Ab|----6---------4--(4)-6-7----------6---------4--(4)-6-7------------------|
Eb|----4--4-4-4--2--(2)-4-5----------4--4-4-4--2--(2)-4-5-----------------| 
         PMPMPM                        PMPMPM

CTND.   1:01   x4
eb|------------------------------------------------------------------------|
Bb|----Same-as-above-riff,-leave-out-PM-notes-inbetween-same-timing--------|
Gb|------------------------------------------------------------------------|
Db|---RING------RING----------------RING------RING-------------------------|
Ab|----6---------4--(4)-6-7----------6---------4--(4)-6-7------------------|
Eb|----4---------2--(2)-4-5----------4---------2--(2)-4-5------------------|




Outro 1:11
eb|------------------------------------------------------------------------|
Bb|------------------------------------------------------------------------|
Gb|------------------ETC---------------------------------------------------|
Db|------------------------------------------------------------------------|
Ab|------666666--7---------------------------------------------------------|
Eb|------444444--5---------------------------------------------------------|
            
Submit corrections

comments powered by Disqus
↑ Back to top | Vaginal Jesus Tabs for Jesus Was Nothing But A Jew. Lyrics for acoustic guitar and electric guitar. Tablatures and chords are parodies/interpretations of the original songs. You may use it for private study, scholarship, research or language learning purposes only