» » »

Indians Are Red Nigger Skunks Tabs (ver.1)

Artists:  A B C D E F G H I J K L M N O P Q R S T U V W X Y Z # 

Indians Are Red Nigger Skunks Tabs (ver.1)

Vaginal Jesus
Rating:
3/5 (2 votes)

Hard to play? Try these video lessons and learn fast.
                Vaginal Jesus
Affirmative Apartheid
Indians are Red Nigger Skunks

Copyright (c) Unholy Records 2002
Version 1.0 - 21.6.2006

.  - palm mute           /  - slide up to
\  - slide down to       ~  - vibrato
h  - hammer on           b  - Bend
p  - pull off            Suffixes for bend
t  - tap                 f  - full bend    h - half bend
ph - pinched harmonic    q  - quarter bend t - tap bend
*  - see comment         ^  - Hold bend    r release bend
x  - Stuccatto           ~  - vibrato bend
,  - slight palm mute    () - ghost note, sustained note
"  - tremolo note        <> - Trill

Tuning is D#


Riff A1
|--------------------------------------------------------------|
|--------------------------------------------------------------|
|--------------------------------------------------------------|
|-7"---2"-5"-4"------------------7"---2"-5"-4"-----------------|
|-5"---0"-3"-2"------3"----------5"---0"-3"-2"------3"------5"-|
|--------------------1"-----------------------------1"------3"-|

Riff A2
|--------------------------------------------------------------|
|--------------------------------------------------------------|
|--------------------------------------------------------------|
|-7"---2"-5"-4"------------------7"---2"-5"-4"-----------------|
|-5"---0"-3"-2"------3"----------5"---0"-3"-2"------3-no ring--|
|--------------------1"-----------------------------1----------|

Riff B (let none ring)
|-------------------------------------------------------------|
|-------------------------------------------------------------|
|-------------------------------------------------------------|
|-7-------5--4-------------------7-------5--4-----------------|
|-5-------3--2-------3-----------5-------3--2-------3---------|
|--------------------1------------------------------1---------|

Riff C
|-------------------------|
|-------------------------|
|-------------------------|
|-------------------------|
|-6"-8"-6"-8"-6"-8"-3"----|
|-4"-6"-4"-6"-4"-6"-1"----|

Riff D1
|L
|-------------------------------------------------------------------|
|-PM 2nd time-----------------------------------PM only 1st time----|
|-*-----------------------------------------------***********-------|
|-----------------7-6-5-4-5-4-3-2-----------------7-6-5-4-5-4-3-----|
|-2-2-2-2-2-2-2-2-5-4-3-2-3-2-1-0-2-2-2-2-2-2-2-2-5-4-3-2-3-2-1-----|
|-0-0-0-0-0-0-0-0-----------------0-0-0-0-0-0-0-0-------------------|
|   . . . . . . . . . . . . . . . . . . . . . . . . . . . . .
|R
|-------------------------------------------------------------------|
|-PM 2nd time-----------------------------------PM only 1st time----|
|-*-----------------------------------------------***********-------|
|-----------------7-6-5-4-5-4-3-2-----------------7-6-5-4-5-4-ph----|
|-2-2-2-2-2-2-2-2-5-4-3-2-3-2-1-0-2-2-2-2-2-2-2-2-5-4-3-2-3-2-1-----|
|-0-0-0-0-0-0-0-0-----------------0-0-0-0-0-0-0-0-------------------|
    . . . . . . . . . . . . . . . . . . . . . . . . . . . . .

Riff D2
|-------------------------------------------------------------------|
|-------------------------------------------------------------------|
|-------------------------------------------------------------------|
|-----------------7-6-5-4-5-4-3-2-----------------7-6-5-4-5-4-3-----|
|-2---------------5-4-3-2-3-2-1-0-2---------------5-4-3-2-3-2-1-----|
|-0---------------5-4-3-2-3-2-1-0-0---------------5-4-3-2-3-2-1-----|

Riff D3
|-------------------------------------------------------------------|
|-------------------------------------------------------------------|
|-------------------------------------------------------------------|
|-----------------7-6-5-4-5-4-3-2-----------------------------------|
|-2---------------5-4-3-2-3-2-1-0-2-2-2-2-2-2-2-2-2-2-2-2-2-2-2-2---|
|-0---------------5-4-3-2-3-2-1-0-0-0-0-0-0-0-0-0-0-0-0-0-0-0-0-0---|
                                  . . . . . . . . . . . . . . . .
 
Structure (middle means both):

Left Channel         Right Channel

Riff A1 x1
Riff A1 x1           Riff B x1

          Riff C  x4
          Riff A1 x2     
          Riff C  x4
          Riff A1 x1
          Riff A2 x1

          Riff D1 x2
          Riff D2 x1
          Riff D3 x1

          Riff A1 x1
          Riff A2 x1


END.
            
Hard to play? Try these video lessons and learn fast. | Correct




comments powered by Disqus
↑ Back to top | Tablatures and chords are parodies/interpretations of the original songs. You may use it for private study, scholarship, research or language learning purposes only