» » »

Vaginal Jesus, I Hate Niggers Tabs (ver.1)

Artists:  A B C D E F G H I J K L M N O P Q R S T U V W X Y Z # 

I Hate Niggers Tabs (ver.1)

Vaginal Jesus Tabs
 Rating:
4/5 (7 votes)
I Hate Niggers lessons Tabs too difficult? Try these video lessons and learn fast
                Vaginal Jesus
Affirmative Apartheid

Copyright (c) Unholy Records 2002
Version 1.0 - 22.6.2006


.  - palm mute           /  - slide up to
\  - slide down to       ~  - vibrato
h  - hammer on           b  - Bend
p  - pull off            Suffixes for bend
t  - tap                 f  - full bend    h - half bend
ph - pinched harmonic    q  - quarter bend t - tap bend
*  - see comment         ^  - Hold bend    r release bend
x  - Stuccatto           ~  - vibrato bend
,  - slight palm mute    () - ghost note, sustained note
"  - tremolo note        <> - Trill

Tuning is D#

Riff A
|--------------------------------------------------------|
|--------------------------------------------------------|
|--------------------------------------------------------|
|--------------------------------------------------------|
|-4-5------2-2------4-5------2-2------4-5------2-2-------|
|-2-3------0-0------2-3------0-0------2-3------0-0-------|
           . .               . .               . . 

Riff A1            Riff A2
|-----------------||-----------|
|-----------------||-----------|
|-----------------||-----------|
|-----------------||-----------|
|-3-3-3-3-3-3-3-3-||-3-3-3-3-3-|
|-1-1-1-1-1-1-1-1-||-1-1-1-1-1-|
  . . . . . . . .    . . . . .

Riff B
|---------------------------------|
|---------------------------------|
|---------------------------------|
|---------------------------------|
|-4/4-2-2-4/4-2-2-4/4-2-2-3-3-3---|
|-2/3-0-0-2/3-0-0-2/3-0-0-1-1-1---|


Structure

Riff A  x1
Ruff A1 x1
Riff A  x1
Riff A1 x1

Riff B  x4

Riff A  x1
Ruff A1 x1
Riff A  x1
Ruff A2 x1


END
            
Submit corrections

comments powered by Disqus
↑ Back to top | Vaginal Jesus Tabs for I Hate Niggers. Lyrics for acoustic guitar and electric guitar. Tablatures and chords are parodies/interpretations of the original songs. You may use it for private study, scholarship, research or language learning purposes only