» » »

Die Homie Die Tabs (ver.1)

Artists:  A B C D E F G H I J K L M N O P Q R S T U V W X Y Z # 

Die Homie Die Tabs (ver.1)

Vaginal Jesus
Rating:
0/5 (0 votes)

Hard to play? Try these video lessons and learn fast.
                   INTRO  0:00
eb|------------------------------------------------------------------------|
Bb|-----8-----------GUITAR-ONE-HOLDS---------------------------------------|
Gb|-----10b-------------THIS-----------------------------------------------|
Db|----full----------------------------------------------------------------|
Ab|----bend----------------------------------------------------------------|
Eb|------------------------------------------------------------------------|

eb|------------------------------------------------------------------------|
Bb|------------------AT-SAME-TIME-GUITAR-TWO-------------------------------|
Gb|---------------------HOLDS-THIS-----------------------------------------|
Db|---HOLD-----------------------------------------------------------------|
Ab|-----5------------------------------------------------------------------|
Eb|-----3------------------------------------------------------------------|

  INTRO CNTD.  0:03
eb|------------------------------------------------------------------------|
Bb|------------------------PLAYED-TO-BACK-UP-------------------------------|
Gb|--------------------------BASS-GUITAR-----------------------------------|
Db|------------------------------------------------------------------------|
Ab|----5--------------5----------------------------------------------------|
Eb|----3--------------3----------------------------------------------------|
      PM             PM


VERSE 4X  0:06 - UNTIL END
eb|------------------------------------------------------------------------|
Bb|------------------------------------------------------------------------|
Gb|------------------------------------------------------------------------|
Db|------------------------------------------------------------------------|
Ab|--55-88-33-44----55-88-33-44---55-88-33-44---55-88-33-44----3---3-3-3---|
Eb|--33-66-11-22----33-66-11-22---33-66-11-22---33-66-11-22----1---1-1-1---|
                                                              PM  PMPMPM
            
Hard to play? Try these video lessons and learn fast. | Correct




comments powered by Disqus
↑ Back to top | Tablatures and chords are parodies/interpretations of the original songs. You may use it for private study, scholarship, research or language learning purposes only