» » »

Back Of The Bus Tabs (ver.1)

Artists:  A B C D E F G H I J K L M N O P Q R S T U V W X Y Z # 

Back Of The Bus Tabs (ver.1)

Vaginal Jesus
Rating:
5/5 (1 vote)
Tabs too difficult? Try these video lessons and learn fast.
                Vaginal Jesus
Affirmative Apartheid
Back of the Bus

Copyright (c) Unholy Records 2002
Version 1.0 - 21.6.2006


.  - palm mute           /  - slide up to
\  - slide down to       ~  - vibrato
h  - hammer on           b  - Bend
p  - pull off            Suffixes for bend
t  - tap                 f  - full bend    h - half bend
ph - pinched harmonic    q  - quarter bend t - tap bend
*,#- see comment         ^  - Hold bend    r release bend
x  - Stuccatto           ~  - vibrato bend
,  - slight palm mute    () - ghost note, sustained note
"  - tremolo note        <> - Trill

Tuning is D#

Riff A1                            Riff A2 (* PM right after picking)
|---------------------------------||---------------------------------|
|---------------------------------||---------------------------------|
|---------------------------------||---------------------------------|
|-----7---9-----------------------||-----7---9-------------*---*-----|
|-2---5---7---2-2-3-2-3-6---5---3-||-2---5---7---2-2-3-2-3-6---5---3-|
|-0-----------0-0-1-0-1-4---3---1-||-0-----------0-0-1-0-1-4---3---1-|
              . .   . .                          . .   . .

Riff A1F                           Riff A2F (* PM right after picking)
|---------------------------------||---------------------------------|
|---------------------------------||---------------------------------|
|---------------------------------||---------------------------------|
|-----7---9-----------------------||-----7---9-------------*---*-----|
|-2---5---7---2-2-3-2-3-6---5---2-||-2---5---7---2-2-3-2-3-6---5---2-|
|-0-----------0-0-1-0-1-4---3---0-||-0-----------0-0-1-0-1-4---3---0-|
              . .   . .

Riff B1                            Riff B2
|---------------------------------||---------------------------------|
|---------------------------------||---------------------------------|
|---------------------------------||---------------------------------|
|-----7---9-----------------------||-----7---9-----------------------|
|-2---5---7---2-2-2-2-2-2-2-2-2-2-||-2-2-5---7---2-2-2-2-2-2-2-2-2-2-|
|-0-----------0-0-0-0-0-0-0-0-0-0-||-0-0---------0-0-0-0-0-0-0-0-0-0-|
              . . . . . . . . . .    . .         . . . . . . . . . .

Riff C1
|-----------------------------------------------------------------|
|-----------------------------------------------------------------|
|----------------------------------Mess with harmonics on these---|
|-7-7-7-7---------5-5-5-5---------===============================-|
|-5-5-5-5-7-7-7-7-3-3-3-3-5-5-5-5-4-4-4-4-4-4-4-4-4-4-4-4-4-4-4-4-|
|---------5-5-5-5---------3-3-3-3-2-2-2-2-2-2-2-2-2-2-2-2-2-2-2-2-|

Riff C2
|-----------------------------------------------------------------|
|-----------------------------------------------------------------|
|----------------------------------Same as C1---------------------|
|-7-7-7-7---------5-5-5-5---------===============-4-4-4-4-ring----|
|-5-5-5-5-7-7-7-7-3-3-3-3-5-5-5-5-4-4-4-4-4-4-4-4-2-2-2-2-ring----|
|---------5-5-5-5---------3-3-3-3-2-2-2-2-2-2-2-2-----------------|

Riff D
|-----------------------------------------------------------------|
|-----------------------------------------------------------------|
|-----------------------------------------------------------------|
|-----------------------------------------------------------------|
|-----------------------------------------------------------------|
|-7-7-7-7-7-7-7-7-7-7-7-7-7-7-7\--/5-5-5-5-5-5-5-5-5-5-5-5-5-5-5--|

End
|-----|
|-----|
|-----|
|-----|
|-2---|
|-0---|

Lead I
Gtr 1
|-/7-7-7-7-7-7-7-7-/7-7-7-7-7-7-7\---/5-5-5-5-5-5-5-5-/5-5-5-5-5\---|
|-------------------------------------------------------------------|
|-------------------------------------------------------------------|
|-------------------------------------------------------------------|
|-------------------------------------------------------------------|
|-------------------------------------------------------------------|
|
|Gtr 2
|-------------------------------------------------------------------|
|------------------/19191919191919\------------------/1919191919\---|
|-------------------------------------------------------------------|
|-------------------------------------------------------------------|
|-------------------------------------------------------------------|
|-------------------------------------------------------------------|

Lead II
Gtr 1
|-/7-7-7-7-7-7-7-7-/7-7-7-7-7-7-7\---/5-5-5-5-5-5-5-5-/5-5-5-5-5\---|
|-------------------------------------------------------------------|
|-------------------------------------------------------------------|
|-------------------------------------------------------------------|
|-------------------------------------------------------------------|
|-------------------------------------------------------------------|
|
|Gtr 2                                                 ph these
|------------------------------------------------------============-|
|------------------/19191919191919\--------------------17-15--15-17-|
|-----------------------------------------------------------16------|
|-------------------------------------------------------------------|
|-------------------------------------------------------------------|
|-------------------------------------------------------------------|

Lead III
|------------------------------------------------------------|
|----------------------------------------5---8p7-8p7---------|
|-------------------------------4~---7p4-------------7-9-----|
|-------------5-t-5-4-------5h7------------------------------|
|---------7-----7-----5-7------------------------------------|
|-0---5-7----------------------------------------------------|
      . .

 -------------------------------------------------------------|
 -------------------------------------------------------------|
 -9---------9-------------------------------------------------|
 ---12p9-12---12p9-12p9------------------------------------9~-|
 -----------------------12-9-12-9/10\9\7------------7-10p7----|
 ----------------------------------------10-10-7-10-----------|
                        .  .             .  .  . .  .

 ------------------|
 -----8-----ph ----|
 -7-9---7-7-9~ \---|
 ------------------|
 ------------------|
 ------------------|

Structure (middle means both)

        Left Channel        Right Channel
Intro:
        Riff A1  x4
Verse I:
                   Riff A1 x4
        Riff A2  x3         Riff B1 x1
        Riff A2F x1         Riff B2 x3
Chorus:
                   Riff C1 x1
                   Riff C2 x1
Verse II:
                   Riff A1 x4
        Riff A2  x3         Riff B1 x1
        Riff A2F x1         Riff B2 x3
Chorus:
                   Riff C1 x1
                   Riff C2 x1
Leads:
                   Riff A1  x3
                   Riff A1F x1
                   Riff D   x1 + Lead I
                   Riff A1  x1
                   Riff A1F x1
                   Riff D   x1 + Lead II
                   Riff A1  x4 + Lead III
Verse III:
        Riff A2  x3         Riff B1 x1
        Riff A2F x1         Riff B2 x3
Chorus:
                   Riff C1 x1
                   Riff C2 x1
End:
                   Riff A1 x4
                   End     x1


Done
            
Tabs too difficult? Try these video lessons and learn fast.


comments powered by Disqus
↑ Back to top | Tablatures and chords are parodies/interpretations of the original songs. You may use it for private study, scholarship, research or language learning purposes only