>
 >
Xothis

Xothis Guitar Tabs

Vader - Xothis chords, tabs, tablatures, lyrics

Guitar lessons | Add/correct | Request | Top 50 tabs Artists:  A B C D E F G H I J K L M N O P Q R S T U V W X Y Z 0-9

Xothis Guitar Tabs – Vader

CD, Sheet music, Poster

Do you like Xothis? Share with your friends now
Tabs
It's a damn good song..... 


Fig.1. Both guitars                                          4x
e------------------------------|-----------------------------||
h------------------------------|-----------------------------||
g------------------------------|-----------------------------||
d------------------------------|-----------------------------||
a--5\4---------2---------------|-6\5---------2---------------||
E--3\2-0-1h2p1-0-0-0-0-0-0-0-0-|-4\3-0-1h3p1-0-0-0-0-0-0-0-0-||


Fig.1-2. Short passage between Fig 1 and Fig 2.
e----------------------------------|
h----------------------------------|
g----------------------------------|
d----------------------------------|
a--5\4--4\3-2--4/5-7--5\4/5--5\4-3-|
E--3\2--2\1-0--2/3-5--3\2/3--3\2-1-|

Fig.2. Both guitars                                              4x
e--------------------------------|-------------------------------||
h--------------------------------|-------------------------------||
g--------------------------------|-------------------------------||
d--------------------------------|-------------------------------||
a--2-----2-----2-----5\4---------|-2-----2-----2-----6\5---------||
E--0-0---0-0---0-0---3\2-0h1h2-3-|-0-0---0-0---0-0---4\3-0h1h2-3-||


Fig.3. Both guitars                         4x
e-------------------------------------------||
h-------------------------------------------||
g-------------------------------------------||
d-------------------------------------------||
a-------------------------------------------||
E--0-0-0--3-3-3--2-2-2--1-1-1--3-3-3-3--2-1-||

Fig 3a. Second guitar plays 4 x Fig 3
e---------|---------|---------|---------||
h---------|---------|---------|---------||
g---------|---------|---------|---------||
d---------|-4-------|-5-------|---------||
a--2------|-2-------|-3-------|-6---3---||
E--0------|---------|---------|-4---1---||


Then both guitars again 4 x Fig 3.


Fig.3-4.
e-------------|
h-------------|
g-------------|
d-------------|
a--2--5\4-4/5-|
E--0--3\2-2/3-|

Fig.4.                                                             3x
e------------------------------------------------------------------||
h------------------------------------------------------------------||
g------------------------------------------------------------------||
d------------------------------------------------------------------||
a------------------2-2-2-2-2-2-3-5-----------------3-3-3-3-3-3-2-0-||
E--1-1-1-1-1-2-1-0-----------------1-1-1-1-1-2-1-0-----------------||


Fig.4a.
e------------------|-----------------|-----------------|-----------------|
h------------------|-----------------|-----------------|-----------------|
g------------------|-----------------|-----------------|-----------------|
d------------------|-----------------|-----------------|-----------------|
a------------------|-2-2-2-2-2-2-3-5-|-----------3-2-0-|-0-0-0-0-0-------|
E--1-1-1-1-1-2-1-0-|-----------------|-1-1-1-1-1-------|-----------3-2-0-|


Fig.5.             7x               Fig 5.            6x
e-------------------|---------------|------------------|---------|--------|
h-------------------|---------------|------------------|---------|--------|
g-------------------|---------------|------------------|---------|--------|
d-------------------|---------------|------------------|---------|-4------|
a-------------------|-3-------------|------------------|-3-------|-2------|
E--0-0-0-0-3--2--1--|-1-------------|-0-0-0-0-3--2--1--|-1-------|--------|
   No more thing...   DNA metamorph - osis...            forever

Fig.6.                                                     2x
e------------------|-----------------|----------|----------||
h------------------|-----------------|----------|----------||
g------------------|-----------------|----------|----------||
d------------------|-----------------|----------|-4--------||
a------------------|-----------------|-3--------|-2--------||
E--4-4-4-4-4-4-4-4-|-4-4-4-4-4-4-4-4-|-1--------|----------||
 Imortal...  my soul alone under the   cracking skies
 on trembling Earth closing the eye of blinding Sun

Fig.6a.
e------------------|-----------------|----------|
h------------------|-----------------|----------|
g------------------|-----------------|----------|
d------------------|-----------------|----------|
a------------------|-----------------|-2--------|
E--4-4-4-4-4-4-4-4-|-1-1-1-1-1-1-1-1-|-0--------|
   Who               am                I ?

Fig.7.
e------------------|-----------------||
h------------------|-----------------||
g------------------|-----------------||
d------------------|-----------------||
a-(2)------1-1-1-1-|-2-2-2-2-2-------||
E-(0)0-0-0---------|-----------4-3-1-||


Fig.8 ?

Fig.9 (guitar background during solo) in plans ;-). Will be out soon.
Guitar solo even later, hehe. There's some work with it. And I don't have a
tremolo :-(

Fig 10.                                         +Fig 2  3x all
e-----------------------------------------------|-------||
h--------------------------13\12-10-------------|-------||
g-----------------------------------------------|-------||
d--9~--10\9-7-10~--10\9-7-----------10-9-8-7~~--|-------||
a-----------------------------------------------|-------||
E-----------------------------------------------|-------||
                                           ^pinch harmonics
(second guitar)
d-------5-4-2-5-----5-4-2-----------------------|-------||
a-------3-2-0-3-----3-2-0------------5-4-3-2----|-------||
E------------------------------------3-2-1-0----|-------||

Fig.3.
e-------------------------------------------||
h-------------------------------------------||
g-------------------------------------------||
d-------------------------------------------||
a-------------------------------------------||
E--0-0-0--3-3-3--2-2-2--1-1-1--3-3-3-3--2-1-||


Fig.3-4.
e-------------|
h-------------|
g-------------|
d-------------|
a--2--5\4-4/5-|
E--0--3\2-2/3-|
The end.


 maybe hard maybe easy, you choose
Kenneth cerda. managua, nicaragua.





Comments


Popular Vader tabs & chords
Revelation Of Black Moses Bass Tabs
Silent Empire Bass Tabs
Anamnesis Tabs
Carnal Tabs
Dark Transmission Tabs
Litany Tabs
Reign Forever World 1 Tabs
Sothis Tabs
Storm Of Stress Tabs
Wings Tabs


Song lyrics



↑ Back to top | Tablatures and chords are parodies/interpretations of the original songs. You may use it for private study, scholarship, research or language learning purposes only
© 2014 AZChords.com Contact us | Privacy policy | DMCA | Add/correct tabs | Request tabs | Top 50 tabs