» » »

Vader, Xepher Bass tabs (ver.1)

Artists:  A B C D E F G H I J K L M N O P Q R S T U V W X Y Z # 

Xepher Bass tabs (ver.1)

Vader Tabs
 Rating:
4/5 (4 votes)
Xepher lessons Tabs too difficult? Try these video lessons and learn fast
1
                Tune Down

F#||----------------------------------|----------------------------------|
C#||----------------------------------|----------------------------------|
G#||----------------------------------|----------------------------------|
D#||--1-2-3-4-5-4-3-2-1-2-3-4-5-4-3-2-|--1-2-3-4-5-4-3-2-1-2-3-4-5-4-3-2-|


                                                                      
----------------------------------|----------------------------------|
----------------------------------|----------------------------------|
----------------------------------|----------------------------------|
--1-2-3-4-5-4-3-2-1-2-3-4-5-4-3-2-|--1-2-3-4-5-4-3-2-1-2-3-4-5-4-3-2-|


                                                                      
----------------------------------|----------------------------------|
----------------------------------|----------------------------------|
----------------------------------|----------------------------------|
--1-2-3-4-5-4-3-2-1-2-3-4-5-4-3-2-|--1-2-3-4-5-4-3-2-1-2-3-4-5-4-3-2-|


                                                                              
----------------------------------|--------------------|---------------------|
----------------------------------|--------------------|---------------------|
----------------------------------|--------------------|---------------------|
--1-2-3-4-5-4-3-2-1-2-3-4-5-4-3-2-|----------1----1----|--0------0------0----|


                                                                 
------------------|---------------------|-----------------------|
------------------|---------------------|-----------------------|
------------------|---------------------|-----------------------|
--0--3----5--6----|--0------0------0----|--0--3----5--6----6----|


                                                               
---------------------|------------------|---------------------|
---------------------|------------------|---------------------|
---------------------|------------------|---------------------|
--0------0------0----|--0--3----5--6----|--0------0------0----|


                                                                  
-----------------------|---------------------|-------------------|
-----------------------|---------------------|-------------------|
-----------------------|---------------------|-------------------|
--0--6--6------9--9----|--0------0------0----|--0----------------|


                                                                 
---------------------|--------------------|---------------------|
---------------------|--------------------|---------------------|
---------------------|--------------------|---------------------|
--0------0------0----|--0--------3--------|--0------0------0----|


                                                                
-------------------|---------------------|---------------------|
-------------------|---------------------|---------------------|
-------------------|---------------------|---------------------|
--0----------------|--0------3------4----|---3------1----3-----|


                                                               
---------------------|------------------|---------------------|
---------------------|------------------|---------------------|
---------------------|------------------|---------------------|
--0------0------0----|--0--1----3--4~---|--0------0------0----|


                                                                  
-----------------------|---------------------|-------------------|
-----------------------|---------------------|-------------------|
-----------------------|---------------------|-------------------|
--0--1----3--4----6----|--0------0------0----|--0----------------|


                                                                 
---------------------|--------------------|---------------------|
---------------------|--------------------|---------------------|
---------------------|--------------------|---------------------|
--0------0------0----|--0--------3--------|--0------0------0----|


                                                                 
-------------------|---------------------|----------------------|
-------------------|---------------------|----------------------|
-------------------|---------------------|----------------------|
--0----------------|--0------3------4----|----0------3----2--0--|


                                                                          
------------------|----------------------------|-------------------------|
------------------|----------------------------|-------------------------|
------------------|----------------------------|-------------------------|
------------------|--0-0-0-0-2----0-0-3----0-0-|--2----0-0-4----0-0-3----|


                                                            
------------------|---------------------|------------------|
------------------|---------------------|------------------|
------------------|---------------------|------------------|
------------------|--0------0------0----|--0--3----5--6----|


                                                                    
---------------------|-----------------------|---------------------|
---------------------|-----------------------|---------------------|
---------------------|-----------------------|---------------------|
--0------0------0----|--0--3----5--6----6----|--0------0------0----|


                                                                 
------------------|---------------------|-----------------------|
------------------|---------------------|-----------------------|
------------------|---------------------|-----------------------|
--0--3----5--6----|--0------0------0----|--0--6--6------9--9----|


                                                                
---------------------|-------------------|---------------------|
---------------------|-------------------|---------------------|
---------------------|-------------------|---------------------|
--0------0------0----|--0----------------|--0------0------0----|


                                                               
--------------------|---------------------|-------------------|
--------------------|---------------------|-------------------|
--------------------|---------------------|-------------------|
--0--------3--------|--0------0------0----|--0----------------|


                                                               
---------------------|---------------------|------------------|
---------------------|---------------------|------------------|
---------------------|---------------------|------------------|
--0------3------4----|---3------1----3-----|------------------|


                                                                   
----------------------------|-------------------------|-----------|
----------------------------|-------------------------|-----------|
----------------------------|-------------------------|-----------|
--0-0-0-0-2----0-0-3----0-0-|--2----0-0-4----0-0-3----|--3--------|


                                                              
----------------------------|-------------------------|------|
----------------------------|-------------------------|------|
----------------------------|-------------------------|------|
--0-0-0-0-2----0-0-3----0-0-|--2----0-0-4----0-0-3----|------|


                                                                              
-------------------|------------------|-------------------|------------------|
-------------------|------------------|-------------------|------------------|
-------------------|------------------|--1----------------|------------------|
--0----------------|------------------|-------------------|------------------|


                                                                              
-------------------|------------------|-------------------|------------------|
-------------------|------------------|-------------------|------------------|
-------------------|------------------|--1----------------|------------------|
--0----------------|------------------|-------------------|------------------|


                                                                      
----------------------------------|----------------------------------|
----------------------------------|----------------------------------|
----------------------------------|----------------------------------|
--0-0-0-0-0-0-0-0-0-0-0-0-0-0-0-0-|--0-0-0-0-0-0-0-0-0-0-0-0-0-0-0-0-|


                                                                      
----------------------------------|----------------------------------|
----------------------------------|----------------------------------|
----------------------------------|----------------------------------|
--1-1-1-1-1-1-1-1-1-1-1-1-1-1-1-1-|--1-1-1-1-1-1-1-1-1-1-1-1-1-1-1-1-|


                                                                      
----------------------------------|----------------------------------|
----------------------------------|----------------------------------|
----------------------------------|----------------------------------|
--0-0-0-0-0-0-0-0-0-0-0-0-0-0-0-0-|--0-0-0-0-0-0-0-0-0-0-0-0-0-0-0-0-|


                                                                      
----------------------------------|----------------------------------|
----------------------------------|----------------------------------|
----------------------------------|----------------------------------|
--1-1-1-1-1-1-1-1-1-1-1-1-1-1-1-1-|--1-1-1-1-1-1-1-1-1-1-1-1-1-1-1-1-|


                                                                      
----------------------------------|----------------------------------|
----------------------------------|----------------------------------|
----------------------------------|----------------------------------|
--0-0-0-0-0-0-0-0-0-0-0-0-0-0-0-0-|--0-0-0-0-0-0-0-0-0-0-0-0-0-0-0-0-|


                                                                      
----------------------------------|----------------------------------|
----------------------------------|----------------------------------|
----------------------------------|----------------------------------|
--1-1-1-1-1-1-1-1-1-1-1-1-1-1-1-1-|--1-1-1-1-1-1-1-1-1-1-1-1-1-1-1-1-|


                                                                      
----------------------------------|----------------------------------|
----------------------------------|----------------------------------|
----------------------------------|----------------------------------|
--0-0-0-0-0-0-0-0-0-0-0-0-0-0-0-0-|--0-0-0-0-0-0-0-0-0-0-0-0-0-0-0-0-|


                                                                             
----------------------------------|-------------------|---------------------|
----------------------------------|-------------------|---------------------|
----------------------------------|-------------------|---------------------|
--1-1-1-1-1-1-1-1-1-1-1-1-1-1-1-1-|--3----------------|--0------0------0----|


                                                                 
------------------|---------------------|-----------------------|
------------------|---------------------|-----------------------|
------------------|---------------------|-----------------------|
--0--3----5--6----|--0------0------0----|--0--3----5--6----6----|


                                                               
---------------------|------------------|---------------------|
---------------------|------------------|---------------------|
---------------------|------------------|---------------------|
--0------0------0----|--0--3----5--6----|--0------0------0----|


                                                                        
-----------------------|---------------------|-------------------------|
-----------------------|---------------------|-------------------------|
-----------------------|---------------------|-------------------------|
--0--6--6------9--9----|--0------0------0----|----1------4-4-4--3-3-3--|


                                                                      
---------------------|-------------------------|---------------------|
---------------------|-------------------------|---------------------|
---------------------|-------------------------|---------------------|
--0------0------0----|----1------4-4-4--3-3-3--|--0------0------0----|


                                                                          
-------------------------|---------------------|-------------------------|
-------------------------|---------------------|-------------------------|
-------------------------|---------------------|-------------------------|
----1------4-4-4--3-3-3--|--0------3------4----|----3------4-4-4--3-3-3--|


                                                               
---------------------|------------------|---------------------|
---------------------|------------------|---------------------|
---------------------|------------------|---------------------|
--0------0------0----|--0--3----5--6----|--0------0------0----|


                                                       
------------------|------|----------------------------|
------------------|------|----------------------------|
------------------|------|----------------------------|
--0--3----5--6----|------|--0-0-0-0-2----0-0-3----0-0-|


                                                                    
-------------------------|-------------------|---------------------|
-------------------------|-------------------|---------------------|
-------------------------|-------------------|---------------------|
--2----0-0-4----0-0-3----|--0----------------|--0------0------0----|


                                                                 
------------------|---------------------|-----------------------|
------------------|---------------------|-----------------------|
------------------|---------------------|-----------------------|
--0--3----5--6----|--0------0------0----|--0--3----5--6----6----|


                                                                    
---------------------|-----------------------|---------------------|
---------------------|-----------------------|---------------------|
---------------------|-----------------------|---------------------|
--0------0------0----|--0--3----5--6----6----|--0------0------0----|


                                                                      
-----------------------|---------------------|-----------------------|
-----------------------|---------------------|-----------------------|
-----------------------|---------------------|-----------------------|
--0--3----5--6----6----|--0------0------0----|--0--3----5--6----6----|


                                                                    
---------------------|-----------------------|---------------------|
---------------------|-----------------------|---------------------|
---------------------|-----------------------|---------------------|
--0------0------0----|--0--3----5--6----6----|--0------0------0----|


                                                                       
-----------------------|-------------------|------------------|------||
-----------------------|-------------------|------------------|------||
-----------------------|-------------------|------------------|------||
--0--3----5--6----6----|--0----------------|------------------|------||
            
Submit corrections

comments powered by Disqus
↑ Back to top | Vader Bass for Xepher. Lyrics for acoustic guitar and electric guitar. 1 Tablatures and chords are parodies/interpretations of the original songs. You may use it for private study, scholarship, research or language learning purposes only