» » »

Wings Tabs (ver.2)

Artists:  A B C D E F G H I J K L M N O P Q R S T U V W X Y Z # 

Wings Tabs (ver.2)

Vader
Rating:
0/5 (0 votes)

Hard to play? Try these video lessons and learn fast.
                 This song is from Vader.
 It's called "wings" 
  
 The tuning is B-E-A-D-F#-B
 
 Have fun with it!

 This song is transcriped by Chris Dorsman


  
  RIffa                                                                            

|----------------------------------------------9-9-9-9-9-9-9-9-9-9-9-9-9-|     
 |7-7-7-7-7-7-7-7-7-7-7-7-7-7-7-7-10-10-10-10-10--------------------------|E
 |------------------------------------------------------------------------|B

 |----------------------------------------------------------------|
 |10-10-10-10-10-7-7-7-7-7-7-7-7--8-8-8-8-8-8-8-8-8-8-8-8-8-8-8-8-|
 |----------------------------------------------------------------|

|--------------------------------------------9-9-9-9-9-9-9-9-9-9--9-9-9-9|
|7-7-7-7-7-7-7-7-7-7-7-7-7-7-7-7-10-10-10-10-----------------------------|
|------------------------------------------------------------------------|


|-----------------------------------------------------------------------|
|10-10-10-10-10-7-7-7-7-7-7-7-7--8-8-8-8-8--7-7-7-7-8--8-8-8-8-7-7-7-7-7|
|-----------------------------------------------------------------------|

  
RiffB
                                                                       3X
|-------------------------------------------------------------------------|
|-----------------------------7-7-7-7-7-8-8-8-8-8-7-7-7-7-8-8--7-7-7-7-7-7|
|5-5-5-5-5-5-5-5-5-5-5-5-5-5-5--------------------------------------------|

|------------------------------------------------------------|
|------------------------------------------------------------|
|7-7-7-7-7-7-7-7-7-7-8-8-8-8-8-8-8-8-7-7-7-7-8-8-8-8-7-7-7-7-|

 
Because of the bad connection of the server I must do the song in parts 
 I can't do nothing about it!

 so till next time
            
Hard to play? Try these video lessons and learn fast. | Correct




comments powered by Disqus
↑ Back to top | Tablatures and chords are parodies/interpretations of the original songs. You may use it for private study, scholarship, research or language learning purposes only