>
 >
Wings

Wings Guitar Tabs

Vader - Wings chords, tabs, tablatures, lyrics

Guitar lessons | Add/correct | Request | Top 50 tabs Artists:  A B C D E F G H I J K L M N O P Q R S T U V W X Y Z 0-9

Wings Guitar Tabs – Vader

CD, Sheet music, Poster

Do you like Wings? Share with your friends now
TabsTabs v2Tabs v3
note - the other tabs are goo, buti thought this one was easier to read so
if you like it let me know. it's played straight through.

top staff = guitar 1 (lead)
bottom staff = guitar 2 (rhythm)
 = tremolo pick
x = just random noise
* = palm mute
a = atificial harmonic

Intro              |1.               |2.
D|-----------------|-----------------|-----------------||
A|-----------------|-----------------|-----------------||
F|-----------------|-----------------|-----------------||
C|---------6-6-7-6-|-7-7-7-7-7-7-7-7-|-7-7-7-6-5-5-----||
G|-4-4-4-7---------|-----------------|-------------5\\-||
D|-----------------|-----------------|-----------------||
 |                               |
D|-----------------|-----------------|-----------------||
A|-----------------|-----------------|-----------------||
F|-----------------|-----------------|-----------------||
C|---------6-6-----|-----------------|-----------------||
G|-4-4-4-7-----5-4-|-5-5-5-5-5-5-5-5-|-5-5-5-4-3-3-----||
D|-----------------|-----------------|-------------5\\-||
                            

Verse 1
D|-----------------|-----------------|-----------------|-----------------|
A|-----------------|-----------------|-----------------|-----------------|
F|-----------------|-----------------|-----------------|-----------------|
C|-----------------|-----------------|-----------------|-----------------|
G|---------5-5-5---|---------5-5-----|---------5-5-5---|-----------------|
D|-2-2-3-2-------3-|-2-2-3-2-----3-0-|-2-2-3-2-------2-|-3-3-3-5-6-6-5-3-|
 |                                       |
D|-----------------|-----------------|-----------------|-----------------|
A|-----------------|-----------------|-----------------|-----------------|
F|-----------------|-----------------|-----------------|-----------------|
C|-----------------|-----------------|-----------------|-----------------|
G|---------5-5-5---|---------5-5-----|---------5-5-5---|-----------------|
D|-2-2-3-2-------3-|-2-2-3-2-----3-0-|-2-2-3-2-------2-|-3-3-3-5-6-6-5-3-|
                                        
D|-----------------|-----------------|-----------------|-----------------|
A|-----------------|-----------------|-----------------|-----------------|
F|-----------------|-----------------|-----------------|-----------------|
C|-----------------|-----------------|-----------------|-----------------|
G|-----------------|-----------------|-----------------|---------5-5-5-4-|
D|-2-2-2-2-2-2-2-2-|-3-3-3-5-6-6-5-3-|-2-2-2-2-2-2-2-2-|-3-3-3-3---------|
 |                                       |
D|-----------------|-----------------|-----------------|-----------------|
A|-----------------|-----------------|-----------------|-----------------|
F|-----------------|-----------------|-----------------|-----------------|
C|-----------------|-----------------|-----------------|-----------------|
G|-----------------|-----------------|-----------------|---------5-5-5-4-|
D|-2-2-2-2-2-2-2-2-|-3-3-3-5-6-6-5-3-|-2-2-2-2-2-2-2-2-|-3-3-3-3---------|
                                        
D|-----------------|-----------------|-----------------|
A|-----------------|-----------------|-----------------|
F|-----------------|-----------------|-----------------|
C|-----------------|-----------------|-----------------|
G|-----------------|-----------------|-----------------|
D|-2-2-2-2-2-2-2-2-|-3-3-3-5-6-6-5-3-|-2-2-2-2-2-2-2-2-|
 |                             |
D|-----------------|-----------------|-----------------|
A|-----------------|-----------------|-----------------|
F|-----------------|-----------------|-----------------|
C|-----------------|-----------------|-----------------|
G|-----------------|-----------------|-----------------|
D|-2-2-2-2-2-2-2-2-|-3-3-3-5-6-6-5-3-|-2-2-2-2-2-2-2-2-|
                              
D|----------------------------||
A|----------------------------||
F|----------------------------||
C|----------------------------||
G|-5--5--5--5--5--5--5--5-----||
D|-3--3--3--3--3--3--3--3-----||
 | *  *  *  *  *  *  *  *     |
D|----------------------------||
A|----------------------------||
F|----------------------------||
C|----------------------------||
G|-5--5--5--5--5--5--5--5-----||
D|-3--3--3--3--3--3--3--3-5h6-||
   *  *  *  *  *  *  *  *

Chorus             |1.               |2.
D|-----------------|-----------------|-----------------||
A|-----------------|-----------------|-----------------||
F|-----------------|-----------------|-----------------||
C|---------6-6-7-6-|-7-7-7-7-7-7-7-7-|-7-7-7-6-5-5-5-5-||
G|-4-4-4-7---------|-----------------|-----------------||
D|-----------------|-----------------|-----------------||
 |                             |
D|-----------------|-----------------|-----------------||
A|-----------------|-----------------|-----------------||
F|-----------------|-----------------|-----------------||
C|---------6-6-----|-----------------|-----------------||
G|-4-4-4-7-----5-4-|-5-5-5-5-5-5-5-5-|-5-5-5-4-3-3-3-3-||
D|-----------------|-----------------|-----------------||
                              

Verse 2
D|-----------------|-----------------|-----------------|-----------------|
A|-----------------|-----------------|-----------------|-----------------|
F|-----------------|-----------------|-----------------|-----------------|
C|-----------------|-----------------|-----------------|-----------------|
G|-----------------|-----------------|-----------------|---------5-5-5-4-|
D|-2-2-2-2-2-2-2-2-|-3-3-3-5-6-6-5-3-|-2-2-2-2-2-2-2-2-|-3-3-3-3---------|
 |                                       |
D|-----------------|-----------------|-----------------|-----------------|
A|-----------------|-----------------|-----------------|-----------------|
F|-----------------|-----------------|-----------------|-----------------|
C|-----------------|-----------------|-----------------|-----------------|
G|-----------------|-----------------|-----------------|---------5-5-5-4-|
D|-2-2-2-2-2-2-2-2-|-3-3-3-5-6-6-5-3-|-2-2-2-2-2-2-2-2-|-3-3-3-3---------|
                                        
D|-----------------|-----------------|-----------------|-----------------||
A|-----------------|-----------------|-----------------|-----------------||
F|-----------------|-----------------|-----------------|-----------------||
C|-----------------|-----------------|---------6-3-----|-5-4----------7--||
G|-----------------|-----------------|-5-4-----4-1-----|-3-2----------5--||
D|-2-2-2-2-2-2-2-2-|-3-3-3-5-6-6-5-3-|-3-2-------------|-----------------||
 |                     *       *         *               |
D|-----------------|-----------------|-----------------|-----------------||
A|-----------------|-----------------|-----------------|-----------------||
F|-----------------|-----------------|-----------------|-----------------||
C|-----------------|-----------------|---------6-3-----|-5-4----------7--||
G|-----------------|-----------------|-5-4-----4-1-----|-3-2----------5--||
D|-2-2-2-2-2-2-2-2-|-3-3-3-5-6-6-5-3-|-3-2-------------|-----------------||
                       *       *         *

Chorus 2           |1., 3.           |2.               |4.
D|-----------------|-----------------|-----------------|-----------------||
A|-----------------|-----------------|-----------------|-----------------||
F|-----------------|-----------------|-----------------|-----------------||
C|---------6-6-7-6-|-7-7-7-7-7-7-7-7-|-7-7-7-6-5-5-5-5-|-7-7-7-6-5-5-5-5-||
G|-4-4-4-7---------|-----------------|-----------------|-----------------||
D|-----------------|-----------------|-----------------|-----------------||
 |                                       |
D|-----------------|-----------------|-----------------|-----------------||
A|-----------------|-----------------|-----------------|-----------------||
F|-----------------|-----------------|-----------------|-----------------||
C|---------6-6-----|-----------------|-----------------|-------4-5-5-5-5-||
G|-4-4-4-7-----5-4-|-5-5-5-5-5-5-5-5-|-5-5-5-4-3-3-3-3-|-5-5-5-----------||
D|-----------------|-----------------|-----------------|-----------------||
                                        

Solo
D|-------------------------------------------------------------------------|
A|-17t12p10-17t12p10-17t12p10-17t12p10-17t12p10-17t12p10-17t12p10-17t12p10-|
F|-------------------------------------------------------------------------|
C|-------------------------------------------------------------------------|
G|-------------------------------------------------------------------------|
D|-------------------------------------------------------------------------|
 |                                                                         |
D|-------------------------------------------------------------------------|
A|-------------------------------------------------------------------------|
F|-------------------------------------------------------------------------|
C|-4--------4--------4--------4--------4--------4--------4--------4--------|
G|-2--------2--------2--------2--------2--------2--------2--------2--------|
D|-------------------------------------------------------------------------|
                                                           
D|-------------------------------------------------------------------------|
A|-17t12p10-17t12p10-17t12p10-17t12p10-17t12p10-17t12p10-17t12p10-17t12p10-|
F|-------------------------------------------------------------------------|
C|-------------------------------------------------------------------------|
G|-------------------------------------------------------------------------|
D|-------------------------------------------------------------------------|
 |                                                                         |
D|-------------------------------------------------------------------------|
A|-------------------------------------------------------------------------|
F|-------------------------------------------------------------------------|
C|-3--------3--------3--------3--------3--------3--------3--------3--------|
G|-1--------1--------1--------1--------1--------1--------1--------1--------|
D|-------------------------------------------------------------------------|
                                                           
D|-----------------|-----------------|
A|-----------------|-----------------|
F|-----------------|-----------------|
C|-x-x\x-x/x-x\x-x-|-x-x\x-x/x-x\x-x-|
G|-x-x/x-x\x-x/x-x-|-x-x/x-x\x-x/x-x-|
D|-----------------|-----------------|
 |                                   |
D|-----------------|-----------------|
A|-----------------|-----------------|
F|-----------------|-----------------|
C|-----------------|-----------------|
G|-4-4-4-4-4-4-4-4-|-5-5-5-5-5-5-5-5-|
D|-2-2-2-2-2-2-2-2-|-3-3-3-3-3-3-3-3-|
                    
D|-a---------------|-----------------|-----------------|-a---------------||
A|-6b--------------|-----------------|-----------------|-11--------------||
F|-----------------|-----------------|-----------------|-----------------||
C|-----------------|-------------x\\-|-xx/xxxxx/xxx----|-----------------||
G|-----------------|-------------x\\-|-xx\xxxxx\xxx----|-----------------||
D|-----------------|-----------------|-----------------|-----------------||
 |                                                                       |
D|-----------------|-----------------|-----------------|-----------------||
A|-----------------|-----------------|-----------------|-----------------||
F|-----------------|-----------------|-----------------|-----------------||
C|-----------------|-7-6---------5/6-|-5-4---------3/6-|-5-4-------------||
G|-4---------------|-5-4---------3/4-|-3-2---------3/4-|-3-2-------------||
D|-2---------------|-----------------|-----------------|-----------------||

D|-----------------|-----------------||
A|-----------------|-----------------||
F|-----------------|-----------------||
C|-----------------|-7-6---------555-||
G|-5-4-------------|-5-4---------333-||
D|-3-2-------------|-----------------||
 |                                   |
D|-----------------|-----------------||
A|-----------------|-----------------||
F|-----------------|-----------------||
C|-----------------|-7-6---------555-||
G|-5-4-------------|-5-4---------333-||
D|-3-2-------------|-----------------||

Verse 3
D|-----------------|-----------------|-----------------|-----------------||2x
A|-----------------|-----------------|-----------------|-----------------||
F|-----------------|-----------------|-----------------|-----------------||
C|-----------------|-----------------|-----------------|-----------------||
G|---------5-5-5---|---------5-5-----|---------5-5-5---|-----------------||
D|-2-2-3-2-------3-|-2-2-3-2-----3-0-|-2-2-3-2-------2-|-3-3-3-5-6-6-5-3-||
 |                                       |
D|-----------------|-----------------|-----------------|-----------------||2x
A|-----------------|-----------------|-----------------|-----------------||
F|-----------------|-----------------|-----------------|-----------------||
C|-----------------|-----------------|-----------------|-----------------||
G|---------5-5-5---|---------5-5-----|---------5-5-5---|-----------------||
D|-2-2-3-2-------3-|-2-2-3-2-----3-0-|-2-2-3-2-------2-|-3-3-3-5-6-6-5-3-||
                                        
D|-----------------|-----------------|-----------------|-----------------||
A|-----------------|-----------------|-----------------|-----------------||
F|-----------------|-----------------|-----------------|-----------------||
C|-----------------|-----------------|-----------------|-----------------||
G|-4---------------|(4)--------------|-4---------------|(4)--------------||
D|-2---------------|(2)--------------|-2---------------|(2)--------------||
 |                                                                       |
D|-----------------|-----------------|-----------------|-----------------||
A|-----------------|-----------------|-----------------|-----------------||
F|-----------------|-----------------|-----------------|-----------------||
C|-----------------|-----------------|-----------------|-----------------||
G|-4---------------|(4)--------------|-4---------------|(4)--------------||
D|-2---------------|(2)--------------|-2---------------|(2)--------------||

Bridge             |1., 3.           |2.               |4.
D|-----------------|-----------------|-----------------|-----------------||
A|-----------------|-----------------|-----------------|-----------------||
F|-----------------|-----------------|-----------------|-----------------||
C|-----------------|-----------------|-----------------|-----------------||
G|-----------------|-----------------|-----------------|-----------------||
D|-0-0-3-2-0-0-3-2-|-0-0-3-1-0-0-3-2-|-0-0-3-0-1-1-4-3-|-0-0-3-0-1-1-1-1-||
 |                                       |
D|-----------------|-----------------|-----------------|-----------------||
A|-----------------|-----------------|-----------------|-----------------||
F|-----------------|-----------------|-----------------|-----------------||
C|-----------------|-----------------|-----------------|-----------------||
G|-----------------|-----------------|-----------------|-----------------||
D|-0-0-3-2-0-0-3-2-|-0-0-3-1-0-0-3-2-|-0-0-3-0-1-1-4-3-|-0-0-3-0-1-1-1-1-||
                                        

Verse 4            |1., 3.           |2.               |4.
D|-----------------|-----------------|-----------------|-----------------||2x
A|-----------------|-----------------|-----------------|-----------------||
F|-----------------|-----------------|-----------------|-----------------||
C|-----------------|-----------------|-----------------|-----------------||
G|-----------------|-R---------5-4---|-R---------5-4---|-1b-------2b-----||
D|-0---------3-2-0-|-----------3-2---|-----------3-2---|----3-2------3-2-||
 |                                                         * *      * * |
D|-----------------|-----------------|-----------------|-----------------||2x
A|-----------------|-----------------|-----------------|-----------------||
F|-----------------|-----------------|-----------------|-----------------||
C|-----------------|-a---------------|-a---------------|-a--------a------||
G|-----------------|-1b--------5-4---|-2b--------5-4---|-1b-------2b-----||
D|-0---------3-2-0-|-----------3-2---|-----------3-2---|----3-2------3-2-||
                                                           * *      * *

Outro
D|----------------------|-------------------|10x
A|----------------------|-------------------|
F|----------------------|-------------------|
C|---------a---------a--|-------a---a---a---|
G|---------1b--------2b-|-------1b--2b--3b--|
D|-0-0-3-2-----3-2-0----|-3-2-0-------------|
 | * * * *     * * *      * * *             |
D|----------------------|-------------------|10x
A|----------------------|-------------------|
F|----------------------|-------------------|
C|---------a---------a--|-------a---a---a---|
G|---------1b--------2b-|-------1b--2b--3b--|
D|-0-0-3-2-----3-2-0----|-3-2-0-------------|
   * * * *     * * *      * * *
D|----------------------|-------------------||
A|----------------------|-------------------||
F|----------------------|-------------------||
C|---------a---------a--|-------a---a----a--||
G|---------1b--------2b-|-------1b--2b---3b-||
D|-0---3-2-----3-2-0----|-3-2-0-------------||
 |     * *     * * *      * * *             |
D|----------------------|-------------------||
A|----------------------|-------------------||
F|----------------------|-------------------||
C|---------a---------a--|-------a---a----a--||
G|---------1b--------2b-|-------1b--2b---3b-||
D|-0---3-2-----3-2-0----|-3-2-0-------------||
       * *     * * *      * * *





Comments


Popular Vader tabs & chords
Reborn In Flames Bass Tabs
Silent Empire Bass Tabs
Sword Of The Witcher Bass Tabs
Xepher Bass Tabs
Carnal Tabs
Crucified Ones Tabs
Death In Silence Tabs
Flag Of Hate Tabs
Outbreak Of Evil 1 Tabs
Storm Of Stress Tabs


Song lyrics



↑ Back to top | Tablatures and chords are parodies/interpretations of the original songs. You may use it for private study, scholarship, research or language learning purposes only
© 2014 AZChords.com Contact us | Privacy policy | DMCA | Add/correct tabs | Request tabs | Top 50 tabs