>
 >
Whisper

Whisper Guitar Tabs

Vader - Whisper chords, tabs, tablatures, lyrics

Guitar lessons | Add/correct | Request | Top 50 tabs Artists:  A B C D E F G H I J K L M N O P Q R S T U V W X Y Z 0-9

Whisper Guitar Tabs – Vader

CD, Sheet music, Poster

Do you like Whisper? Share with your friends now
Tabs
--- V A D E R ---
                                 "Whisper"
                     

                            TABULATURE LEGEND:
                   " - tremolo             h - hammer on           
                   ~ - vibrato             \ - slide down
                   p - pull off            / - slide down
                  tr - tremolo picking     ^ - pinch harmonics     
                   = - sustained note      b - bend string         
                p.m. - palm muting         t - tapping

Tuning is C# [C#,F#,B,e,g#,c#]

[Riff 1 (x4)]
-|----------------------------------|
-|----------------------------------|
-|----------------------------------|
-|----------------------------------|
-|----------------------------------|
-|-22222222333322222222000000001111-|

[Riff 2]
-|-----------------------------[x3]-|----------------------------------|
-|----------------------------------|----------------------------------|
-|----------------------------------|----------------------------------|
-|----------------------------------|----------------------------------|
-|----------------------------------|----------------------------------|
-|-55555555666655550000000044446666-|-55555555666655555555666655555555-|


[Riff 3a (x2)]
-|----------------------------------|-[ending 1]-----------------------|
-|----------------------------------|----------------------------------|
-|----------------------------------|----------------------------------|
-|----------------------------------|----------------------------------|
-|-----2222111111113333-------------|-----2222111111113333-------------|
-|-2222----------------555511113333-|-2222----------------555555555555-|

-|-[ending 2]-----------------|
-|----------------------------|
-|----------------------------|
-|------------------5--5====--|
-|-----222211111111-3--3====--|
-|-2222-------------3--3====--|

[Riff 4a (x3)]
-|----------------------------------|----------------------------------|
-|----------------------------------|----------------------------------|
-|----------------------------------|----------------------------------|
-|----------------------------------|----------------------------------|
-|---------666655555555555555555555-|---------666655555555555544445555-|
-|-00000000-------------------------|-00000000-------------------------|

[Outro]
-|----------------------------------|----------------------------------|
-|----------------------------------|----------------------------------|
-|----------------------------------|----------------------------------|
-|----------------------------------|----------------------------------|
-|---------666666665555555544444444-|-66666666555555554444444433333333-|
-|-00000000-------------------------|----------------------------------|
 |                                  |                                  |
-|----------------------------------|----------------------------------|
-|----------------------------------|----------------------------------|
-|----------------------------------|----------------------------------|
-|----------------------------------|-77777777666666665555555544444444-|
-|-2--------------------------------|----------------------------------|
-|-0--------------------------------|----------------------------------|
   .

[RIFF 1 (x4)]

[Riff 3b]
-|-----------------------------[x3]-|----------------------------------|
-|----------------------------------|----------------------------------|
-|----------------------------------|----------------------------------|
-|----------------------------------|----------------------------------|
-|---------222211113333-------------|---------222211113333000011113333-|
-|-22222222------------555511113333-|-22222222-------------------------|

[Riff 4b]
-|-----------------------------[x3]-|----------------------------------|-
-|----------------------------------|----------------------------------|-
-|----------------------------------|----------------------------------|-
-|----------------------------------|----------------------------------|-
-|---------666655555555555555555555-|---------666655555555555544445555-|-
-|-00000000-------------------------|-00000000-------------------------|-

-----------------------------[x4]-|
----------------------------------|
----------------------------------|
----------------------------------|
---------666655555555555555555555-|
-00000000-------------------------|

[Outro 2 (x2)]
-|----------------------------------|
-|----------------------------------|
-|----------------------------------|
-|----------------------------------|
-|----------------------------------|
-|-22222222333322222222222200001111-|

[RIFF 1 (x4)]                    [RIFF 1]       [RIFF 1]
-|------------------------------|--------|-----|--------|-----------
-|------------------------------|--------|-----|--------|-----------
-|------------------------------|--------|-----|--------|-----------
-|------------------------------|--[x3]--|-----|--[x3]--|-----------
-|-8========---------------8-8\-|--------|-8---|--------|-----------
-|-6========-1"....-3"....-6-6\-|--------|-6---|--------|-2"......--
 |                              |        |     |        |
-|------------------------------|--------|-----|--------|-----------
-|------------------------------|--------|-----|--------|-----------
-|------------------------------|--------|-----|--------|-----------
-|------------------------------|--[x3]--|-----|--[x3]--|-----------
-|-8========-3-------------8-8\-|--------|-8---|--------|-----------
-|-6========-1------3"....-6-6\-|--------|-6---|--------|-2"......--
             .

[Riff 5] /under solo 1/
-|-----------------------------[x4]-|-----------------------------[x4]-|
-|----------------------------------|----------------------------------|
-|----------------------------------|----------------------------------|
-|----------------------------------|----------------------------------|
-|-333333333333333333333333---------|-------------------------44443333-|
-|-------------------------22223333-|-555555555555555555555555---------|

[Chord]
-|--------
-|--------
-|--------
-|-5=====-
-|-5=====-
-|-3=====-

[Riff 6] /under solo 2/
-|----------------------------[x2]-|----------------------------[x2]-|
-|---------------------------------|---------------------------------|
-|---------------------------------|---------------------------------|
-|---------------------------------|---------------------------------|
-|---------2".....-1".....-3".....-|---------------------------------|
-|-2".....-------------------------|-5".....-7".....-6".....-8".....-|

[Outro 4]
-|----------------------------------|----------------------------------|
-|----------------------------------|----------------------------------|
-|----------------------------------|----------------------------------|
-|----------------------------------|----------------------------------|
-|----------------------------------|----------------------------------|
-|-55555555666655550000000044446666-|-55555555666655555555666655554444-|

[Riff 4c]
-|-----------------------------[x3]-|----------------------------------|-
-|----------------------------------|----------------------------------|-
-|----------------------------------|----------------------------------|-
-|----------------------------------|----------------------------------|-
-|---------666655555555555555555555-|---------666655555555555544445555-|-
-|-00000000-------------------------|-00000000-------------------------|-

                                   [Outro]
-----------------------------[x2]-|-------|
----------------------------------|-------|
----------------------------------|-------|
----------------------------------|-------|
---------666655555555555555555555-|-------|
-00000000-------------------------|-------|

[RIFF 1]         [RIFF 1]
-|--------|-----|--------|-------------------------------------|
-|--------|-----|--------|-------------------------------------|
-|--------|-----|--------|-------------------------------------|
-|--[x3]--|-----|--[x3]--|-------------------------------------|
-|--------|-8---|--------|-7--8-7---------------------6-5-4~~~-|
-|--------|-6---|--------|-5--6-5-0"...-4"-6"-5".....-4-3-2~~~-|
 |        |     |        | .  . .                     . .      |
-|--------|-----|--------|-------------------------------------|
-|--------|-----|--------|-------------------------------------|
-|--------|-----|--------|-------------------------------------|
-|--[x3]--|-----|--[x3]--|-------------------------------------|
-|--------|-8---|--------|-7--8-7-2-----6--8--7-------6-5-4~~~-|
-|--------|-6---|--------|-5--6-5-0-----4--6--5-------4-3-2~~~-|
                           .  . . .     .  .          . .

END OF SONG





Comments


Popular Vader tabs & chords
Angel Of Death Tabs
Carnal Tabs
Carnal 1 Tabs
Dethroned Emperor Tabs
Outbreak Of Evil Tabs
Reign Carrion Tabs
Reign In Blood Tabs
Shadowfear Tabs
The Code Tabs
What Colour Is Your Blood Tabs


Song lyrics



↑ Back to top | Tablatures and chords are parodies/interpretations of the original songs. You may use it for private study, scholarship, research or language learning purposes only
© 2014 AZChords.com Contact us | Privacy policy | DMCA | Add/correct tabs | Request tabs | Top 50 tabs