>
 >
What Colour Is Your Blood

What Colour Is Your Blood Guitar Tabs

Vader - What Colour Is Your Blood chords, tabs, tablatures, lyrics

Guitar lessons | Add/correct | Request | Top 50 tabs Artists:  A B C D E F G H I J K L M N O P Q R S T U V W X Y Z 0-9

What Colour Is Your Blood Guitar Tabs – Vader

CD, Sheet music, Poster

Do you like What Colour Is Your Blood? Share with your friends now
Tabs
Band:  Vader


  Tuning: C# F# B E G# C#

 C# |--------------------------------|--------------------------------|
 G# |--------------------------------|--------------------------------|
 E  |--------------------------------|--------------------------------|
 B  |4-------5---4-------------------|--------------------------------|
 F# |2-------3---2-------4---7---4---|6-------------------------------|
 C  |--------------------2---5---2---|4-------------------------------|


 C# |--------------------------------|--------------------------------|
 G# |--------------------------------|--------------------------------|
 E  |--------------------------------|--------------------------------|
 B  |--------------------------------|--------------------------------|
 F# |------------4-------------------|------------4-------------------|
 C  |2---2-2-2-2-2-------2---0---3---|2---2-2-2-2-2-------2---0---3---|


 C# |--------------------------------|--------------------------------|
 G# |--------------------------------|--------------------------------|
 E  |--------------------------------|--------------------------------|
 B  |--------------------------------|--------------------------------|
 F# |------------4-------------------|--------------------------------|
 C  |2---2-2-2-2-2-------2---0---3---|5-5-5-5-5-5-6-6-6-6-6-6-5-5-5-5-|


 C# |--------------------------------|--------------------------------|
 G# |--------------------------------|--------------------------------|
 E  |--------------------------------|--------------------------------|
 B  |--------------------------------|--------------------------------|
 F# |------------4-------------------|------------4-------------------|
 C  |2---2-2-2-2-2-------2---0---3---|2---2-2-2-2-2-------2---0---3---|


 C# |--------------------------------|--------------------------------|
 G# |--------------------------------|--------------------------------|
 E  |--------------------------------|--------------------------------|
 B  |--------------------------------|--------------------------------|
 F# |------------4-------------------|--------------------------------|
 C  |2---2-2-2-2-2-------2---0---3---|5-5-5-5-5-5-4-4-4-4-4-4-3-3-3-3-|


 C# |--------------------------------|--------------------------------|
 G# |--------------------------------|--------------------------------|
 E  |--------------------------------|--------------------------------|
 B  |--------------------------------|--------------------------------|
 F# |------------4-------------------|------------4-------------------|
 C  |2---2-2-2-2-2-------2---0---3---|2---2-2-2-2-2-------2---0---3---|


 C# |--------------------------------|--------------------------------|
 G# |--------------------------------|--------------------------------|
 E  |--------------------------------|--------------------------------|
 B  |--------------------------------|--------------------------------|
 F# |------------4-------------------|--------------------------------|
 C  |2---2-2-2-2-2-------2---0---3---|5-5-5-5-5-5-6-6-6-6-6-6-5-5-5-5-|


 C# |--------------------------------|--------------------------------|
 G# |--------------------------------|--------------------------------|
 E  |--------------------------------|--------------------------------|
 B  |--------------------------------|--------------------------------|
 F# |------------4-------------------|------------4-------------------|
 C  |2---2-2-2-2-2-------2---0---3---|2---2-2-2-2-2-------2---0---3---|


 C# |--------------------------------|--------------------------------|
 G# |--------------------------------|--------------------------------|
 E  |--------------------------------|--------------------------------|
 B  |--------------------------------|--------------------------------|
 F# |------------4-------------------|--------------------------------|
 C  |2---2-2-2-2-2-------2---0---3---|5-5-5-5-5-5-4-4-4-4-4-4-3-3-3-3-|


 C# |--------------------------------|--------------------------------|
 G# |--------------------------------|--------------------------------|
 E  |--------------------------------|--------------------------------|
 B  |--------------------------------|--------------------------------|
 F# |7---8---5---7-------------------|--------------------7---8---5---|
 C  |5---6---3---5-------------------|--------------------5---6---3---|


 C# |--------------------------------|--------------------------------|
 G# |--------------------------------|--------------------------------|
 E  |--------------------------------|--------------------------------|
 B  |--------------------------------|--------------------------------|
 F# |--------4-----------4-----------|4-----------4-----------4---5---|
 C  |2-2-2-------2-2-2-------2-2-2---|----2-2-2-------2-2-2-----------|


 C# |--------------------------------|--------------------------------|
 G# |--------------------------------|--------------------------------|
 E  |--------------------------------|--------------------------------|
 B  |--------------------------------|--------------------------------|
 F# |--------4-----------4-----------|4-------------------------------|
 C  |2-2-2-------2-2-2-------2-2-2---|----0-0-0-0-0-0-0-0-0-0-0-0-0-0-|


 C# |--------------------------------|--------------------------------|
 G# |--------------------------------|--------------------------------|
 E  |--------------------------------|--------------------------------|
 B  |--------------------------------|--------------------------------|
 F# |--------4-----------4-----------|4-----------4-----------4---5---|
 C  |2-2-2-------2-2-2-------2-2-2---|----2-2-2-------2-2-2-----------|


 C# |--------------------------------|--------------------------------|
 G# |--------------------------------|--------------------------------|
 E  |--------------------------------|--------------------------------|
 B  |--------------------------------|--------------------------------|
 F# |--------4-----------4-----------|--------------------------------|
 C  |2-2-2-------2-2-2-------2-2-2---|3-3-3-3-3-3-5-5-5-5-5-5-6-6-6-6-|


 C# |--------------------------------|--------------------------------|
 G# |--------------------------------|--------------------------------|
 E  |--------------------------------|--------------------------------|
 B  |--------------------------------|--------------------------------|
 F# |--------4-----------4-----------|4-----------4-----------4---5---|
 C  |2-2-2-------2-2-2-------2-2-2---|----2-2-2-------2-2-2-----------|


 C# |--------------------------------|--------------------------------|
 G# |--------------------------------|--------------------------------|
 E  |--------------------------------|--------------------------------|
 B  |--------------------------------|--------------------------------|
 F# |--------4-----------4-----------|4-------------------------------|
 C  |2-2-2-------2-2-2-------2-2-2---|----0-0-0-0-0-0-0-0-0-0-0-0-0-0-|


 C# |--------------------------------|--------------------------------|
 G# |--------------------------------|--------------------------------|
 E  |--------------------------------|--------------------------------|
 B  |--------------------------------|--------------------------------|
 F# |--------4-----------4-----------|4-----------4-----------4---5---|
 C  |2-2-2-------2-2-2-------2-2-2---|----2-2-2-------2-2-2-----------|


 C# |--------------------------------|--------------------------------|
 G# |--------------------------------|--------------------------------|
 E  |--------------------------------|--------------------------------|
 B  |--------------------------------|--------------------------------|
 F# |--------4-----------4-----------|--------------------------------|
 C  |2-2-2-------2-2-2-------2-2-2---|0-0-0-0-0-0-0-0-2-2-2-2-2-2-2-2-|


 C# |--------------------------------|--------------------------------|
 G# |--------------------------------|--------------------------------|
 E  |--------------------------------|--------------------------------|
 B  |--------------------------------|2-------------------------------|
 F# |5-----------------------5---4---|2---------------------------5---|
 C  |3-----------------------3---2---|0-----------------------0---3---|


 C# |--------------------------------|--------------------------------|
 G# |--------------------------------|--------------------------------|
 E  |--------------------------------|--------------------------------|
 B  |--------------------------------|--------------------------------|
 F# |--------------------------------|----------------------------4---|
 C  |2-2-2-2-----2-2-2-2-----2-2-2-2-|----2-2-2-2-----2-2-2-2-0---2---|

 C# |--------------------------------|--------------------------------|
 G# |--------------------------------|--------------------------------|
 E  |--------------------------------|--------------------------------|
 B  |--------------------------------|2-------------------------------|
 F# |5-----------------------5---4---|2---------------------------5---|
 C  |3-----------------------3---2---|0-----------------------0---3---|


 C# |--------------------------------|--------------------------------|
 G# |--------------------------------|--------------------------------|
 E  |--------------------------------|--------------------------------|
 B  |--------------------------------|--------------------------------|
 F# |------------4-------------------|------------4-------------------|
 C  |2---2-2-2-2-2-------2---0---3---|2---2-2-2-2-2-------2---0---3---|


 C# |--------------------------------|--------------------------------|
 G# |--------------------------------|--------------------------------|
 E  |--------------------------------|--------------------------------|
 B  |--------------------------------|--------------------------------|
 F# |------------4-------------------|--------------------------------|
 C  |2---2-2-2-2-2-------2---0---3---|5-5-5-5-5-5-6-6-6-6-6-6-5-5-5-5-|


 C# |--------------------------------|--------------------------------|
 G# |--------------------------------|--------------------------------|
 E  |--------------------------------|--------------------------------|
 B  |--------------------------------|--------------------------------|
 F# |------------4-------------------|------------4-------------------|
 C  |2---2-2-2-2-2-------2---0---3---|2---2-2-2-2-2-------2---0---3---|


 C# |--------------------------------|--------------------------------|
 G# |--------------------------------|--------------------------------|
 E  |--------------------------------|--------------------------------|
 B  |--------------------------------|--------------------------------|
 F# |------------4-------------------|--------------------------------|
 C  |2---2-2-2-2-2-------2---0---3---|5-5-5-5-5-5-4-4-4-4-4-4-3-3-3-3-|



 C# |--------------------------------|--------------------------------|
 G# |--------------------------------|--------------------------------|
 E  |--------------------------------|--------------------------------|
 B  |--------------------------------|--------------------------------|
 F# |------------4-------------------|------------4-------------------|
 C  |2---2-2-2-2-2-------2---0---3---|2---2-2-2-2-2-------2---0---3---|


 C# |--------------------------------|--------------------------------|
 G# |--------------------------------|--------------------------------|
 E  |--------------------------------|--------------------------------|
 B  |--------------------------------|--------------------------------|
 F# |------------4-------------------|--------------------------------|
 C  |2---2-2-2-2-2-------2---0---3---|5-5-5-5-5-5-6-6-6-6-6-6-5-5-5-5-|


 C# |--------------------------------|--------------------------------|
 G# |--------------------------------|--------------------------------|
 E  |--------------------------------|--------------------------------|
 B  |--------------------------------|--------------------------------|
 F# |------------4-------------------|------------4-------------------|
 C  |2---2-2-2-2-2-------2---0---3---|2---2-2-2-2-2-------2---0---3---|


 C# |--------------------------------|--------------------------------|
 G# |--------------------------------|--------------------------------|
 E  |--------------------------------|--------------------------------|
 B  |--------------------------------|--------------------------------|
 F# |------------4-------------------|--------------------------------|
 C  |2---2-2-2-2-2-------2---0---3---|5-5-5-5-5-5-4-4-4-4-4-4-3-3-3-3-|


 C# |--------------------------------|--------------------------------|
 G# |--------------------------------|--------------------------------|
 E  |--------------------------------|--------------------------------|
 B  |--------------------------------|--------------------------------|
 F# |--------4-----------4-----------|4-----------4-----------4---5---|
 C  |2-2-2-------2-2-2-------2-2-2---|----2-2-2-------2-2-2-----------|


 C# |--------------------------------|--------------------------------|
 G# |--------------------------------|--------------------------------|
 E  |--------------------------------|--------------------------------|
 B  |--------------------------------|--------------------------------|
 F# |--------4-----------4-----------|4-------------------------------|
 C  |2-2-2-------2-2-2-------2-2-2---|----0-0-0-0-0-0-0-0-0-0-0-0-0-0-|


 C# |--------------------------------|--------------------------------|
 G# |--------------------------------|--------------------------------|
 E  |--------------------------------|--------------------------------|
 B  |--------------------------------|--------------------------------|
 F# |--------4-----------4-----------|4-----------4-----------4---5---|
 C  |2-2-2-------2-2-2-------2-2-2---|----2-2-2-------2-2-2-----------|


 C# |--------------------------------|--------------------------------|
 G# |--------------------------------|--------------------------------|
 E  |--------------------------------|--------------------------------|
 B  |--------------------------------|2-------------------------------|
 F# |--------4-----------4-----------|2-------------------------------|
 C  |2-2-2-------2-2-2-------2-2-2---|0-------------------------------|


 C# |--------------------------------|--------------------------------|
 G# |--------------------------------|--------------------------------|
 E  |--------------------------------|--------------------------------|
 B  |--------------------------------|--------------------------------|
 F# |------------4-4-4-4-4-4-5-5-5-5-|------------4-4-4-4-4-4-5-5-5-5-|
 C  |2-2-2-2-2-2---------------------|2-2-2-2-2-2---------------------|


 C# |--------------------------------|--------------------------------|
 G# |--------------------------------|--------------------------------|
 E  |--------------------------------|--------------------------------|
 B  |--------------------------------|--------------------------------|
 F# |------------4-4-4-4-4-4-5-5-5-5-|--------------------------------|
 C  |2-2-2-2-2-2---------------------|3-3-3-3-3-3-3-3-3-3-3-3-3-3-3-3-|



 C# |--------------------------------|--------------------------------|
 G# |--------------------------------|--------------------------------|
 E  |--------------------------------|--------------------------------|
 B  |--------------------------------|--------------------------------|
 F# |------------4-4-4-4-4-4-5-5-5-5-|------------4-4-4-4-4-4-5-5-5-5-|
 C  |2-2-2-2-2-2---------------------|2-2-2-2-2-2---------------------|


 C# |--------------------------------|--------------------------------|
 G# |--------------------------------|--------------------------------|
 E  |--------------------------------|--------------------------------|
 B  |--------------------------------|--------------------------------|
 F# |------------4-4-4-4-4-4-5-5-5-5-|--------------------------------|
 C  |2-2-2-2-2-2---------------------|3-3-3-3-3-3-3-3-0-0-0-0-0-0-0-0-|


 C# |--------------------------------|--------------------------------|
 G# |--------------------------------|--------------------------------|
 E  |--------------------------------|--------------------------------|
 B  |--------------------------------|--------------------------------|
 F# |------------4-4-4-4-4-4-5-5-5-5-|------------4-4-4-4-4-4-5-5-5-5-|
 C  |2-2-2-2-2-2---------------------|2-2-2-2-2-2---------------------|


 C# |--------------------------------|--------------------------------|
 G# |--------------------------------|--------------------------------|
 E  |--------------------------------|--------------------------------|
 B  |--------------------------------|--------------------------------|
 F# |------------4-4-4-4-4-4-5-5-5-5-|--------------------------------|
 C  |2-2-2-2-2-2---------------------|3-3-3-3-3-3-3-3-3-3-3-3-3-3-3-3-|


 C# |--------------------------------|--------------------------------|
 G# |--------------------------------|--------------------------------|
 E  |--------------------------------|--------------------------------|
 B  |--------------------------------|--------------------------------|
 F# |------------4-4-4-4-4-4-5-5-5-5-|------------4-4-4-4-4-4-5-5-5-5-|
 C  |2-2-2-2-2-2---------------------|2-2-2-2-2-2---------------------|


 C# |--------------------------------|--------------------------------|
 G# |--------------------------------|--------------------------------|
 E  |--------------------------------|--------------------------------|
 B  |--------------------------------|--------------------------------|
 F# |------------4-4-4-4-4-4-5-5-5-5-|----------------------------4---|
 C  |2-2-2-2-2-2---------------------|3-3-3-3-3-3-3-3-3-3-3-3-0---2---|


 C# |--------------------------------|--------------------------------|
 G# |--------------------------------|--------------------------------|
 E  |--------------------------------|--------------------------------|
 B  |--------------------------------|--------------------------------|
 F# |5-------------------------------|------------------------7-------|
 C  |3-------------------------------|--------------------0---5---0---|


 C# |--------------------------------|--------------------------------|
 G# |--------------------------------|--------------------------------|
 E  |--------------------------------|--------------------------------|
 B  |5-------------------------------|--------------------------------|
 F# |5-------------------------------|4---------------3---------------|
 C  |3-------------------------------|2---------------1---------------|


 C# |--------------------------------|--------------------------------|
 G# |--------------------------------|--------------------------------|
 E  |--------------------------------|--------------------------------|
 B  |--------------------------------|--------------------------------|
 F# |2---------------------------7-\-|5---------------------------5-\-|
 C  |0---0---0---0---0---0---0---5-\-|3---0---0---0---0---0---0---3-\-|


 C# |--------------------------------|--------------------------------|
 G# |--------------------------------|--------------------------------|
 E  |--------------------------------|--------------------------------|
 B  |--------------------------------|--------------------------------|
 F# |3---------------------------7-\-|5---------------3-------7---5---|
 C  |1---0---0---0---0---0---0---5-\-|3---0---0---0---1-------5---3---|


 C# |--------------------------------|--------------------------------|
 G# |--------------------------------|--------------------------------|
 E  |--------------------------------|--------------------------------|
 B  |--------------------------------|--------------------------------|
 F# |2---------------------------7-\-|5---------------------------5-\-|
 C  |0---0---0---0---0---0---0---5-\-|3---0---0---0---0---0---0---3-\-|


 C# |--------------------------------|--------------------------------|
 G# |--------------------------------|--------------------------------|
 E  |--------------------------------|--------------------------------|
 B  |--------------------------------|--------------------------------|
 F# |3-----------5-----------3-------|----5-----------7-------5-------|
 C  |1---0---0---3---0---0---1---0---|0---3---0---0---5---0---3---0---|


 C# |--------------------------------|--------------------------------|
 G# |--------------------------------|--------------------------------|
 E  |--------------------------------|--------------------------------|
 B  |2-------------------------------|--------------------------------|
 F# |2---------------------------7-\-|5---------------------------5-\-|
 C  |0-------0---0---0---0---0---5-\-|3---0---0---0---0---0---0---3-\-|


 C# |--------------------------------|--------------------------------|
 G# |--------------------------------|--------------------------------|
 E  |--------------------------------|--------------------------------|
 B  |--------------------------------|--------------------------------|
 F# |3-------------------------------|12----------10----------8---10--|
 C  |1---0---0---0---0---0---0---0---|----0---0-------0---0-----------|


 C# |--------------------------------|--------------------------------|
 G# |--------------------------------|--------------------------------|
 E  |10--9---------------------------|--------------------------------|
 B  |--------------------------------|--------------------------------|
 F# |----------------------------7-\-|5---------------------------5-\-|
 C  |--------0---0---0---0---0---5-\-|3---0---0---0---0---0---0---3-\-|


 C# |--------------------------------|--------------------------------|
 G# |--------------------------------|--------------------------------|
 E  |--------------------------------|--------------------------------|
 B  |--------------------------------|--------------------------------|
 F# |3-------------------------------|12----------10----------8---10--|
 C  |1---0---0---0---0---0---0---0---|----0---0-------0---0-----------|


 C# |--------------------------------|--------------------------------|
 G# |--------------------------------|--------------------------------|
 E  |10--9---------------------------|--------------------------------|
 B  |--------------------------------|--------------------------------|
 F# |----------------------------7-\-|5---------------------------5-\-|
 C  |--------0---0---0---0---0---5-\-|3---0---0---0---0---0---0---3-\-|


 C# |--------------------------------|--------------------------------|
 G# |--------------------------------|--------------------------------|
 E  |--------------------------------|--------------------------------|
 B  |--------------------------------|--------------------------------|
 F# |3-------------------------------|12----------10----------8---10--|
 C  |1---0---0---0---0---0---0---0---|----0---0-------0---0-----------|


 C# |--------------------------------|--------------------------------|
 G# |--------------------------------|--------------------------------|
 E  |10--9---------------------------|--------------------------------|
 B  |--------------------------------|--------------------------------|
 F# |----------------------------7-\-|5---------------------------5-\-|
 C  |--------0---0---0---0---0---5-\-|3---0---0---0---0---0---0---3-\-|


 C# |--------------------------------|--------------------------------|
 G# |--------------------------------|--------------------------------|
 E  |--------------------------------|--------------------------------|
 B  |--------------------------------|--------------------------------|
 F# |3---------------------------7-\-|5---------------3-------5-------|
 C  |1---0---0---0---0---0---0---5-\-|3---0---0---0---1-------3-------|


 C# |--------------------------------|--------------------------------|
 G# |--------------------------------|--------------------------------|
 E  |--------------------------------|--------------------------------|
 B  |--------------------------------|--------------------------------|
 F# |4-------------------------------|5-\-4---------------------------|
 C  |2---2---2---2---2---2---2---2---|3-\-2---2---2---2---2---2---2---|


 C# |--------------------------------|--------------------------------|
 G# |--------------------------------|--------------------------------|
 E  |--------------------------------|--------------------------------|
 B  |--------------------------------|--------------------------------|
 F# |5-\-4---------------------------|5-------------------------------|
 C  |3-\-2---2---2---2---2---2---2---|3---0-0-0-0-0-0-0-0-0-0-0-0-0-0-|


 C# |--------------------------------|--------------------------------|
 G# |--------------------------------|--------------------------------|
 E  |--------------------------------|--------------------------------|
 B  |--------------------------------|--------------------------------|
 F# |5-\-4---------------------------|5-\-4---------------------------|
 C  |3-\-2---2---2---2---2---2---2---|3-\-2---2---2---2---2---2---2---|


 C# |--------------------------------|--------------------------------|
 G# |--------------------------------|--------------------------------|
 E  |--------------------------------|--------------------------------|
 B  |--------------------------------|--------------------------------|
 F# |5-\-4---------------------------|5-------------------------------|
 C  |3-\-2---2---2---2---2---2---2---|3---0-0-0-0-0-0-0-0-0-0-0-0-0-0-|


 C# |--------------------------------|--------------------------------|
 G# |--------------------------------|--------------------------------|
 E  |--------------------------------|--------------------------------|
 B  |--------------------------------|--------------------------------|
 F# |5-\-4---------------------------|5-\-4---------------------------|
 C  |3-\-2---2---2---2---2---2---2---|3-\-2---2---2---2---2---2---2---|


 C# |--------------------------------|--------------------------------|
 G# |--------------------------------|--------------------------------|
 E  |--------------------------------|--------------------------------|
 B  |--------------------------------|--------------------------------|
 F# |5-\-4---------------------------|5-------------------------------|
 C  |3-\-2---2---2---2---2---2---2---|3---0-0-0-0-0-0-0-0-0-0-0-0-0-0-|


 C# |--------------------------------|--------------------------------|
 G# |--------------------------------|--------------------------------|
 E  |--------------------------------|--------------------------------|
 B  |--------------------------------|--------------------------------|
 F# |5-\-4---------------------------|5-\-4---------------------------|
 C  |3-\-2---2---2---2---2---2---2---|3-\-2---2---2---2---2---0-------|


 C# |--------------------------------|--------------------------------|
 G# |--------------------------------|--------------------------------|
 E  |--------------------------------|--------------------------------|
 B  |--------------------------------|--------------------------------|
 F# |5-------------------------------|----------------8-------7-------|
 C  |3-------------------------------|----------------6-------5-------|


 C# |--------------------------------|--------------------------------|
 G# |--------------------------------|--------------------------------|
 E  |--------------------------------|--------------------------------|
 B  |--------------------------------|--------------------------------|
 F# |------------4-------------------|------------4-------------------|
 C  |2---2-2-2-2-2-------2---0---3---|2---2-2-2-2-2-------2---0---3---|


 C# |--------------------------------|--------------------------------|
 G# |--------------------------------|--------------------------------|
 E  |--------------------------------|--------------------------------|
 B  |--------------------------------|--------------------------------|
 F# |------------4-------------------|--------------------------------|
 C  |2---2-2-2-2-2-------2---0---3---|5-5-5-5-5-5-6-6-6-6-6-6-5-5-5-5-|


 C# |--------------------------------|--------------------------------|
 G# |--------------------------------|--------------------------------|
 E  |--------------------------------|--------------------------------|
 B  |--------------------------------|--------------------------------|
 F# |------------4-------------------|------------4-------------------|
 C  |2---2-2-2-2-2-------2---0---3---|2---2-2-2-2-2-------2---0---3---|


 C# |--------------------------------|--------------------------------|
 G# |--------------------------------|--------------------------------|
 E  |--------------------------------|--------------------------------|
 B  |--------------------------------|--------------------------------|
 F# |------------4-------------------|--------------------------------|
 C  |2---2-2-2-2-2-------2---0---3---|5-5-5-5-5-5-4-4-4-4-4-4-3-3-3-3-|


 C# |--------------------------------|--------------------------------|
 G# |--------------------------------|--------------------------------|
 E  |--------------------------------|--------------------------------|
 B  |--------------------------------|--------------------------------|
 F# |------------4-------------------|------------4-------------------|
 C  |2---2-2-2-2-2-------2---0---3---|2---2-2-2-2-2-------2---0---3---|


 C# |--------------------------------|--------------------------------|
 G# |--------------------------------|--------------------------------|
 E  |--------------------------------|--------------------------------|
 B  |--------------------------------|--------------------------------|
 F# |------------4-------------------|--------------------------------|
 C  |2---2-2-2-2-2-------2---0---3---|5-5-5-5-5-5-6-6-6-6-6-6-3-3-3-3-|


 C# |--------------------------------|--------------------------------|
 G# |--------------------------------|--------------------------------|
 E  |--------------------------------|--------------------------------|
 B  |--------------------------------|--------------------------------|
 F# |------------4-------------------|------------4-------------------|
 C  |2---2-2-2-2-2-------2---0---3---|2---2-2-2-2-2-------2---0---3---|


 C# |--------------------------------|--------------------------------|
 G# |--------------------------------|--------------------------------|
 E  |--------------------------------|--------------------------------|
 B  |--------------------------------|--------------------------------|
 F# |------------4-------------------|--------------------------------|
 C  |2---2-2-2-2-2-------2---0---3---|5-5-5-5-5-5-4-4-4-4-4-4-3-3-3-3-|


 C# |--------------------------------|--------------------------------|
 G# |--------------------------------|--------------------------------|
 E  |--------------------------------|--------------------------------|
 B  |--------------------------------|--------------------------------|
 F# |--------4-----------4-----------|4-----------4-----------4---5---|
 C  |2-2-2-------2-2-2-------2-2-2---|----2-2-2-------2-2-2-----------|


 C# |--------------------------------|--------------------------------|
 G# |--------------------------------|--------------------------------|
 E  |--------------------------------|--------------------------------|
 B  |--------------------------------|--------------------------------|
 F# |--------4-----------4-----------|4-------------------------------|
 C  |2-2-2-------2-2-2-------2-2-2---|----0-0-0-0-0-0-0-0-0-0-0-0-0-0-|


 C# |--------------------------------|--------------------------------|
 G# |--------------------------------|--------------------------------|
 E  |--------------------------------|--------------------------------|
 B  |--------------------------------|--------------------------------|
 F# |--------4-----------4-----------|4-----------4-----------4---5---|
 C  |2-2-2-------2-2-2-------2-2-2---|----2-2-2-------2-2-2-----------|


 C# |--------------------------------|--------------------------------|
 G# |--------------------------------|--------------------------------|
 E  |--------------------------------|--------------------------------|
 B  |--------------------------------|--------------------------------|
 F# |--------4-----------4-----------|--------------------------------|
 C  |2-2-2-------2-2-2-------2-2-2---|3-3-3-3-3-3-5-5-5-5-5-5-6-6-6-6-|


 C# |--------------------------------|--------------------------------|
 G# |--------------------------------|--------------------------------|
 E  |--------------------------------|--------------------------------|
 B  |--------------------------------|--------------------------------|
 F# |--------4-----------4-----------|4-----------4-----------4---5---|
 C  |2-2-2-------2-2-2-------2-2-2---|----2-2-2-------2-2-2-----------|


 C# |--------------------------------|--------------------------------|
 G# |--------------------------------|--------------------------------|
 E  |--------------------------------|--------------------------------|
 B  |--------------------------------|--------------------------------|
 F# |--------4-----------4-----------|--------------------------------|
 C  |2-2-2-------2-2-2-------2-2-2---|3-3-3-3-3-3-5-5-5-5-5-5-6-6-6-6-|


 C# |--------------------------------|--------------------------------|
 G# |--------------------------------|--------------------------------|
 E  |--------------------------------|--------------------------------|
 B  |--------------------------------|--------------------------------|
 F# |--------4-----------4-----------|4-----------4-----------4---5---|
 C  |2-2-2-------2-2-2-------2-2-2---|----2-2-2-------2-2-2-----------|


 C# |--------------------------------|--------------------------------|
 G# |--------------------------------|--------------------------------|
 E  |--------------------------------|--------------------------------|
 B  |--------------------------------|--------------------------------|
 F# |--------4-----------4-----------|--------------------------------|
 C  |2-2-2-------2-2-2-------2-2-2---|3-3-3-3-3-3-5-5-5-5-5-5-6-6-6-6-|


 C# |--------------------------------|--------------------------------|
 G# |--------------------------------|--------------------------------|
 E  |--------------------------------|--------------------------------|
 B  |--------------------------------|--------------------------------|
 F# |--------4-----------4-----------|4-----------4-----------4---5---|
 C  |2-2-2-------2-2-2-------2-2-2---|----2-2-2-------2-2-2-----------|


 C# |--------------------------------|--------------------------------|
 G# |--------------------------------|--------------------------------|
 E  |--------------------------------|--------------------------------|
 B  |--------------------------------|--------------------------------|
 F# |--------4-----------4-----------|--------------------------------|
 C  |2-2-2-------2-2-2-------2-2-2---|3-3-3-3-3-3-5-5-5-5-5-5-6-6-6-6-|


 C# |--------------------------------|--------------------------------|
 G# |--------------------------------|--------------------------------|
 E  |--------------------------------|--------------------------------|
 B  |--------------------------------|--------------------------------|
 F# |--------4-----------4-----------|4-----------4-----------4---5---|
 C  |2-2-2-------2-2-2-------2-2-2---|----2-2-2-------2-2-2-----------|


 C# |--------------------------------|--------------------------------|
 G# |--------------------------------|--------------------------------|
 E  |--------------------------------|--------------------------------|
 B  |--------------------------------|--------------------------------|
 F# |--------4-----------4-----------|--------------------------------|
 C  |2-2-2-------2-2-2-------2-2-2---|3-3-3-3-3-3-5-5-5-5-5-5-6-6-6-6-|


 C# |--------------------------------|--------------------------------|
 G# |--------------------------------|--------------------------------|
 E  |--------------------------------|--------------------------------|
 B  |2-------3---2-------------------|--------------------------------|
 F# |0-------1---0-----------5-------|4-------------------------------|
 C  |--------------------0---3---0---|2-------------------------------|


    END





Comments


Popular Vader tabs & chords
Silent Empire Bass Tabs
Black To The Blind Tabs
Death In Silence Tabs
Distant Dream Tabs
North Tabs
Of Moon, Blood, Dream And Me 1 Tabs
Reign In Blood Tabs
Shadowfear Tabs
Silent Scream Tabs
Wings 1 Tabs


Song lyrics



↑ Back to top | Tablatures and chords are parodies/interpretations of the original songs. You may use it for private study, scholarship, research or language learning purposes only
© 2014 AZChords.com Contact us | Privacy policy | DMCA | Add/correct tabs | Request tabs | Top 50 tabs