» » »

Vader, The Code Tabs (ver.1)

Artists:  A B C D E F G H I J K L M N O P Q R S T U V W X Y Z # 

The Code Tabs (ver.1)

Vader Tabs
Rating:
0/5 (0 votes)
The Code lessons Tabs too difficult? Try these video lessons and learn fast
                Tune down to C#

||-------------------------|-------------------------||
||o------------------------|------------------------o||
||-------------------------|-------------------------||
||------2-----------3/6-55-|------2-------------3-6--||
||o-----2--3-2------3/6-55-|------2--33-22------3-6-o||
||--0-3-0-------0-3-1/4-33-|--0-3-0---------0-3-1-4--||

||-----------------|------------------------------------------||
||o----------------|-----------------------------------------o||
||-----------------|------------------------------------------||
||------2------3/6-|-----2------3------3------6------6--------||
||o-----2------3/6-|-----2------3------3------6------6-------o||
||--0-3-0--0-3-1/4-|-0-3-0--0-3-1111111111111144444444444444--||

||------------------------------------------------------||
||o----------------------------------------------------o||
||---------9----9---------AH--------9----9--------------||
||---------9----9--p------7---------9----9--p---p---p---||
||o--------7----7-7-0-5/7-----------7----7-7-0-8-0-5-0-o||
||--000-00---00--------------000-00---00----------------||

||--------------------------------------------------||
||o------------------------------------------------o||
||---------9----9---------AH--------9---------------||
||---------9----9--p------7---------9----12---12-9--||
||o--------7----7-7-0-5/7-----------7----12---12-9-o||
||--000-00---00--------------000-00---00-10---10-7--||

||-----------------------------||
||o---------------------------o||
||-----------------------------||
||------------------12---12-9--|| x3
||o-2-2-2-2-2-2-2-2-12---12-9-o||
||--0-0-0-0-0-0-0-0-10---10-7--||

||---------------------------------------------------------||
||o-------------------------------------------------------o||
||---------------------------------------------------------||
||----------------------------------------------12---12-9--||
||o-2-2-2-2-2-2-2-2-----------------------------12---12-9-o||
||--0-0-0-0-0-0-0-0--11111155555533333300000000-10---10-7--||

||-----------------------------||
||o---------------------------o||
||-----------------------------||
||------------------12---12-9--|| x2
||o-2-2-2-2-2-2-2-2-12---12-9-o||
||--0-0-0-0-0-0-0-0-10---10-7--||

||---------------------------------------------------------------------------||
||o-------------------------------------------------------------------------o||
||---------------------------------------------------------------------------||
||---------------------------------------------------------------------------||
||o-2-2-2-2-2-2-2-2---------------------------------------------------------o||
||--0-0-0-0-0-0-0-0--11111155555533333300000000-COULDN'T FIGURE THIS BIT OUT-||

||------------------------------------------------------||
||o----------------------------------------------------o||
||---------9----9---------AH--------9----9--------------||
||---------9----9--p------7---------9----9--p---p---p---||
||o--------7----7-7-0-5/7-----------7----7-7-0-8-0-5-0-o||
||--000-00---00--------------000-00---00----------------||

||--------------------------------------------------||
||o------------------------------------------------o||
||---------9----9---------AH--------9---------------||
||---------9----9--p------7---------9----12---12-9--||
||o--------7----7-7-0-5/7-----------7----12---12-9-o||
||--000-00---00--------------000-00---00-10---10-7--||

||-----------------------------||
||o---------------------------o||
||-----------------------------||
||------------------12---12-9--|| x3
||o-2-2-2-2-2-2-2-2-12---12-9-o||
||--0-0-0-0-0-0-0-0-10---10-7--||

||---------------------------------------------------------||
||o-------------------------------------------------------o||
||---------------------------------------------------------||
||----------------------------------------------12---12-9--||
||o-2-2-2-2-2-2-2-2-----------------------------12---12-9-o||
||--0-0-0-0-0-0-0-0--11111155555533333300000000-10---10-7--||

||----------------||
||o--------------o||
||----9-9-9-9-----||
||----9-9-7-9-----|| x4
||o---7-7-7-7----o||
||--00-0-0-0-7-5--||

||------------------------------------||
||o----------------------------------o||
||------------------------------------||
||------------------------------------|| x2
||o----------------------------------o||
||--11111111000000003333333322222222--||

||---------------||
||o-------------o||
||---------------||
||------2-----6--||
||o-----2-----6-o||
||--0-3-0-0-3-4--||

||------------------------------------------------------||
||o----------------------------------------------------o||
||---------9----9---------AH--------9----9--------------||
||---------9----9--p------7---------9----9--p---p---p---||
||o--------7----7-7-0-5/7-----------7----7-7-0-8-0-5-0-o||
||--000-00---00--------------000-00---00----------------||


||--------------------------------------------------||
||o------------------------------------------------o||
||---------9----9---------AH--------9---------------||
||---------9----9--p------7---------9----12---12-9--||
||o--------7----7-7-0-5/7-----------7----12---12-9-o||
||--000-00---00--------------000-00---00-10---10-7--||

REPEAT OF THE BIT I COULDN'T FIGUREOUT GOES HERE

||----------------------------------||
||o--------------------------------o||
||----------------------------------||
||------2-3--3-2-6-5-4-5-6-5-4-3-2--||
||o-----2-3--3-2-6-5-4-5-6-5-4-3-2-o||
||--0-3-0-1--1-0-4-3-2-3-4-3-2-1-0--||
            

comments powered by Disqus
↑ Back to top | Vader Tabs for The Code. Lyrics for acoustic guitar and electric guitar. Tablatures and chords are parodies/interpretations of the original songs. You may use it for private study, scholarship, research or language learning purposes only