>
 >
Revelation Of Black Moses

Revelation Of Black Moses Bass Tabs

Vader - Revelation Of Black Moses chords, tabs, tablatures, lyrics

Guitar lessons | Add/correct | Request | Top 50 tabs Artists:  A B C D E F G H I J K L M N O P Q R S T U V W X Y Z 0-9

Revelation Of Black Moses Bass Tabs – Vader

CD, Sheet music, Poster

Do you like Revelation Of Black Moses? Share with your friends now
Bass Tabs
Tune Down

F#||--------------------------|--------------------------|
C#||--------------------------|--------------------------|
G#||--------------------------|--------------------------|
C#||--5--3--3--3--3--3--3--3--|--2--2--2--2--2--2--7--6--|


                                                      
--------------------------|--------------------------|
--------------------------|--------------------------|
--------------------------|--------------------------|
--5--3--3--3--3--3--3--3--|--2--2--2--2--2--2--2--2--|


                                                      
--------------------------|--------------------------|
--------------------------|--------------------------|
--------------------------|--------------------------|
--5--3--3--3--3--3--3--3--|--2--2--2--2--2--2--7--6--|


                                                                            
--------------------------|--------------------------|---------------------|
--------------------------|--------------------------|---------------------|
--------------------------|--------------------------|---------------------|
--5--3--3--3--3--3--3--3--|--2--2--2--2--2--2--2--2--|--7----5----8--------|


                                                      
--------------------------|--------------------------|
--------------------------|--------------------------|
--------------------------|--------------------------|
--5--3--3--3--3--3--3--3--|--2--2--2--2--2--2--7--6--|


                                                      
--------------------------|--------------------------|
--------------------------|--------------------------|
--------------------------|--------------------------|
--5--3--3--3--3--3--3--3--|--2--2--2--2--2--2--2--2--|


                                                      
--------------------------|--------------------------|
--------------------------|--------------------------|
--------------------------|--------------------------|
--5--3--3--3--3--3--3--3--|--2--2--2--2--2--2--7--6--|


                                                                              
--------------------------|--------------------------|-----------------------|
--------------------------|--------------------------|-----------------------|
--------------------------|--------------------------|-----------------------|
--5--3--3--3--3--3--3--3--|--2--2--2--2--2--2--2--2--|--7---6---1------------|


                                                                     
------------------|----------------------|--------------------------|
------------------|----------------------|--------------------------|
------------------|----------------------|--------------------1--0--|
------------------|--0----0--0--1--------|--0----0--0--3------------|


                                                                             
-----------------------|--------------------------|-------------------------|
-----------------------|--------------------------|-------------------------|
--1--0-----------------|--------------------1--0--|--1--0-------------------|
--------0--0--1--------|--0----0--0--3------------|--------0--0--1----0--0--|


                                                                           
------------------------|------------------------|------------------------|
------------------------|------------------------|------------------------|
------------------------|------------------------|------------------------|
--1----0--0--3----8--7--|--6----5--5--6----5--5--|--6----5--5--6----5--5--|


                                                                        
---------------------|----------------------|--------------------------|
---------------------|----------------------|--------------------------|
---------------------|----------------------|--------------------1--0--|
--8------------3--2--|--0----0--0--1--------|--0----0--0--3------------|


                                                                         
-------------------------|------------------------|---------------------|
-------------------------|------------------------|---------------------|
--1--0-------------------|------------------------|---------------------|
--------0--0--1----0--0--|--1----0--0--3----8--7--|--6--7--6------------|


                                                                        
---------------------|----------------------|--------------------------|
---------------------|----------------------|--------------------------|
---------------------|----------------------|--------------------1--0--|
--8--9--8------------|--0----0--0--1--------|--0----0--0--3------------|


                                                                             
-----------------------|--------------------------|-------------------------|
-----------------------|--------------------------|-------------------------|
--1--0-----------------|--------------------1--0--|--1--0-------------------|
--------0--0--1--------|--0----0--0--3------------|--------0--0--1----0--0--|


                                                                           
------------------------|------------------------|------------------------|
------------------------|------------------------|------------------------|
------------------------|------------------------|------------------------|
--1----0--0--3----8--7--|--6----5--5--6----5--5--|--6----5--5--6----5--5--|


                                                        
--------------------|----------------------------------|
--------------------|----------------------------------|
--------------------|------------------3-3-3-3-3-3-3-3-|
--8--------9--------|--3-3-3-3-3-3-3-3-----------------|


                                                                      
----------------------------------|----------------------------------|
----------------------------------|----------------------------------|
--2-2-2-2-2-2-2-2-4-4-4-4-4-4-4-4-|------------------3-3-3-3-3-3-3-3-|
----------------------------------|--3-3-3-3-3-3-3-3-----------------|


                                                                      
----------------------------------|----------------------------------|
----------------------------------|----------------------------------|
--2-2-2-2-2-2-2-2-----------------|------------------3-3-3-3-3-3-3-3-|
------------------2-2-2-2-4-4-4-4-|--3-3-3-3-3-3-3-3-----------------|


                                                                      
----------------------------------|----------------------------------|
----------------------------------|----------------------------------|
--2-2-2-2-2-2-2-2-4-4-4-4-4-4-4-4-|------------------3-3-3-3-3-3-3-3-|
----------------------------------|--3-3-3-3-3-3-3-3-----------------|


                                                          
----------------------------------|----------------------|
----------------------------------|----------------------|
--2-2-2-2-2-2-2-2-----------------|----------------------|
------------------2-2-2-2-2-2-2-2-|--0----0--0--1--------|


                                                                              
--------------------------|-----------------------|--------------------------|
--------------------------|-----------------------|--------------------------|
--------------------1--0--|--1--0-----------------|--------------------1--0--|
--0----0--0--3------------|--------0--0--1--------|--0----0--0--3------------|


                                                                            
-------------------------|------------------------|------------------------|
-------------------------|------------------------|------------------------|
--1--0-------------------|------------------------|------------------------|
--------0--0--1----0--0--|--1----0--0--3----8--7--|--6----5--5--6----5--5--|


                                                                         
-------------------------|-------------------------|--------------------|
-------------------------|-------------------------|--------------------|
-------------------------|-------------------------|--------------------|
--7--6--5--5--6----5--5--|--5--5--5--5--6----5--5--|--0--------1--------|


                                                                
--------------------|--------------------|---------------------|
--------------------|--------------------|---------------------|
--------------------|--------------------|---------------------|
--0--------1--------|--0--------7--------|--3------------8--7--|


                                                                             
------------------------|-------------------------|-------------------------|
------------------------|-------------------------|-------------------------|
------------------------|-------------------------|-------------------------|
--6----5--5--6----5--5--|--7--6--5--5--6----5--5--|--7--6--5--5--6----5--5--|


                                                          
----------------------------------|----------------------|
----------------------------------|----------------------|
----------------------------------|----------------------|
--7-7-7-7-7-7-7-7-6-6-6-6-6-6-6-6-|--3----2--------3--2--|


                                                                          
----------------------|--------------------------|-----------------------|
----------------------|--------------------------|-----------------------|
----------------------|--------------------1--0--|--1--0-----------------|
--0----0--0--1--------|--0----0--0--3------------|--------0--0--1--------|


                                                                   
-----------------------|-----------------------|------------------|
-----------------------|-----------------------|------------------|
-----------------------|-----------------------|------------------|
--0----0--0--8----7----|--6--------6--7--5--6--|------------------|


                                                              
------------------|----------------------|-------------------|
------------------|----------------------|-------------------|
------------------|----------------------|-------------------|
------------------|--5--5------6--6------|--3----------------|


                                                                      
----------------------------------|----------------------------------|
----------------------------------|----------------------------------|
----------------------------------|----------------------------------|
--2-2-2-2-2-2-2-2-2-2-2-2-2-2-2-2-|--2-2-2-2-2-2-2-2-2-2-2-2-2-2-2-2-|


                                                                      
----------------------------------|----------------------------------|
----------------------------------|----------------------------------|
----------------------------------|----------------------------------|
--2-2-2-2-2-2-2-2-0-0-0-0-0-0-0-0-|--0-0-0-0-0-0-0-0-3-3-3-3-3-3-3-3-|


                                                                      
----------------------------------|----------------------------------|
----------------------------------|----------------------------------|
----------------------------------|----------------------------------|
--3-3-3-3-3-3-3-3-3-3-3-3-3-3-3-3-|--3-3-3-3-3-3-3-3-3-3-3-3-3-3-3-3-|


                                                              
----------------------------------|--------------------------|
----------------------------------|--------------------------|
----------------------------------|--------------------------|
--3-3-3-3-3-3-3-3-2-2-2-2-2-2-2-2-|--3--3--3--3--3--3--3--3--|


                                                                       
-------------------|---------------------|----------------------------|
-------------------|---------------------|----------------------------|
-------------------|--0--------1---------|------------------0---------|
--7/---------------|----------------3----|--1-1-1-1-1-1-1-1------3----|


                                                                                
----------------------------|----------------------------|---------------------|
----------------------------|----------------------------|---------------------|
------------------0----1----|------------------0---------|--1--------0---------|
--1-1-1-1-1-1-1-1-----------|--1-1-1-1-1-1-1-1------3----|----------------3----|


                                                          
----------------------------|----------------------------|
----------------------------|----------------------------|
------------------0---------|------------------0----1----|
--1-1-1-1-1-1-1-1------3----|--1-1-1-1-1-1-1-1-----------|


                                                          
------------------------------|--------------------------|
------------------------------|--------------------------|
------------------0--0--0--0--|--------------------------|
--1-1-1-1-1-1-1-1-------------|--3--3--3--3--3--3--3--3--|


                                                                        
--------------------------|--------------------|-----------------------|
--------------------------|--------------------|-----------------------|
--------------------------|--------------------|------------1--0--1----|
--1--1--1--1--1--1--1--1--|--0--------1--------|--0------3-------------|


                                                                   
--------------------|------------------------|--------------------|
--------------------|------------------------|--------------------|
--------------------|------------1--0--1--0--|--------------------|
--0--------1--------|--0------3--------------|--0--------1--------|


                                                                      
-----------------------|--------------------|------------------------|
-----------------------|--------------------|------------------------|
------------1--0--1----|--------------------|------------1--0--1--0--|
--0------3-------------|--0--------1--------|--0------3--------------|


                                                                  
--------------------|-----------------------|--------------------|
--------------------|-----------------------|--------------------|
--------------------|------------1--0--1----|--------------------|
--0--------1--------|--0------3-------------|--0--------1--------|


                                                                      
------------------------|--------------------|-----------------------|
------------------------|--------------------|-----------------------|
------------1--0--1--0--|--------------------|------------1--0--1----|
--0------3--------------|--0--------1--------|--0------3-------------|


                                                                  
--------------------|------------------------|-------------------|
--------------------|------------------------|-------------------|
--------------------|------------1--0--1--0--|-------------------|
--0--------1--------|--0------3--------------|--3----------------|


                                                                              
------------------|------------------|-------------------|-------------------|
------------------|------------------|-------------------|-------------------|
------------------|------------------|-------------------|-------------------|
------------------|------------------|--3----------------|--1----------------|


                                                                               
-------------------|------------------|-------------------|-------------------|
-------------------|------------------|-------------------|-------------------|
-------------------|------------------|-------------------|-------------------|
--2----------------|------------------|--3----------------|--1----------------|


                                                                               
-------------------|------------------|-------------------|-------------------|
-------------------|------------------|-------------------|-------------------|
-------------------|------------------|-------------------|-------------------|
--2----------------|------------------|--3----------------|--1----------------|


                                                                               
-------------------|------------------|-------------------|-------------------|
-------------------|------------------|-------------------|-------------------|
-------------------|------------------|-------------------|-------------------|
--2----------------|------------------|--3----------------|--5----------------|


                                                               
-------------------|----------------------|-------------------|
-------------------|----------------------|-------------------|
-------------------|----------------------|-------------------|
--2----------------|----------0--0--0--0--|--3----------------|


                                                                               
-------------------|-------------------|------------------|-------------------|
-------------------|-------------------|------------------|-------------------|
-------------------|-------------------|------------------|-------------------|
--0----------------|--2----------------|------------------|--3----------------|


                                                                               
-------------------|-------------------|------------------|-------------------|
-------------------|-------------------|------------------|-------------------|
-------------------|-------------------|------------------|-------------------|
--0----------------|--2----------------|------------------|--3----------------|


                                                           
-------------------|-------------------|------------------|
-------------------|-------------------|------------------|
-------------------|-------------------|------------------|
--5----------------|--2----------------|------------------|


                                                                                
---------------------|----------------------------|----------------------------|
---------------------|----------------------------|----------------------------|
--0--------1---------|------------------0---------|------------------0----1----|
----------------3----|--1-1-1-1-1-1-1-1------3----|--1-1-1-1-1-1-1-1-----------|


                                                                                
----------------------------|---------------------|----------------------------|
----------------------------|---------------------|----------------------------|
------------------0---------|--1--------0---------|------------------0---------|
--1-1-1-1-1-1-1-1------3----|----------------3----|--1-1-1-1-1-1-1-1------3----|


                                                                              
----------------------------|----------------------------|-------------------|
----------------------------|----------------------------|-------------------|
------------------0----1----|------------------0---------|-------------------|
--1-1-1-1-1-1-1-1-----------|--1-1-1-1-1-1-1-1------3----|--1----------------|


                                                                             
------------------|------------------|-------------------|------------------|
------------------|------------------|-------------------|------------------|
------------------|------------------|-------------------|------------------|
------------------|------------------|--0----------------|------------------|


                                                                             
------------------|------------------|-------------------|------------------|
------------------|------------------|-------------------|------------------|
------------------|------------------|-------------------|------------------|
------------------|------------------|--1----------------|------------------|


                                                                               
------------------|--------------------|-------------------|------------------|
------------------|--------------------|-------------------|------------------|
------------------|--------------------|-------------------|------------------|
------------------|--3--------2--------|--0----------------|------------------|


                                                                             
------------------|------------------|-------------------|------------------|
------------------|------------------|-------------------|------------------|
------------------|------------------|-------------------|------------------|
------------------|------------------|--1----------------|------------------|


                                                                    
----------------------------|-------------------|------------------|
----------------------------|-------------------|------------------|
----------------------------|-------------------|------------------|
--1-1-1-1-1-1-1-1-4----3----|--0----------------|------------------|


                                                                             
------------------|------------------|-------------------|------------------|
------------------|------------------|-------------------|------------------|
------------------|------------------|-------------------|------------------|
------------------|------------------|--1----------------|------------------|


                                                              
------------------|--------------------|---------------------|
------------------|--------------------|---------------------|
------------------|--------------------|--0--------1----0----|
------------------|--3--------2--------|---------------------|


                                                          
----------------------------|----------------------------|
----------------------------|----------------------------|
------------------0---------|------------------0----1----|
--1-1-1-1-1-1-1-1------3----|--1-1-1-1-1-1-1-1-----------|


                                                                                
----------------------------|---------------------|----------------------------|
----------------------------|---------------------|----------------------------|
------------------0---------|--1--------0---------|------------------0---------|
--1-1-1-1-1-1-1-1------3----|----------------3----|--1-1-1-1-1-1-1-1------3----|


                                                                                
----------------------------|----------------------------|---------------------|
----------------------------|----------------------------|---------------------|
------------------0----1----|------------------0---------|--1--------0---------|
--1-1-1-1-1-1-1-1-----------|--1-1-1-1-1-1-1-1------3----|----------------3----|


                                                          
----------------------------|----------------------------|
----------------------------|----------------------------|
------------------0---------|------------------0----1----|
--1-1-1-1-1-1-1-1------3----|--1-1-1-1-1-1-1-1-----------|


                                                                                
----------------------------|---------------------|----------------------------|
----------------------------|---------------------|----------------------------|
------------------0---------|--1--------0---------|------------------0---------|
--1-1-1-1-1-1-1-1------3----|----------------3----|--1-1-1-1-1-1-1-1------3----|


                                                                
----------------------------|----------------------------------|
----------------------------|----------------------------------|
------------------0----1----|----------------------------------|
--1-1-1-1-1-1-1-1-----------|--1-1-1-1-1-1-1-1-1-1-1-1-1-1-1-1-|


                                                                      
----------------------------------|----------------------------------|
----------------------------------|----------------------------------|
----------------------------------|----------------------------------|
--1-1-1-1-1-1-1-1-1-1-1-1-1-1-1-1-|--0-0-0-0-0-0-0-0-0-0-0-0-0-0-0-0-|


                                                                      
----------------------------------|----------------------------------|
----------------------------------|----------------------------------|
----------------------------------|----------------------------------|
--0-0-0-0-0-0-0-0-0-0-0-0-0-0-0-0-|--1-1-1-1-1-1-1-1-1-1-1-1-1-1-1-1-|


                                                                      
----------------------------------|----------------------------------|
----------------------------------|----------------------------------|
----------------------------------|----------------------------------|
--1-1-1-1-1-1-1-1-1-1-1-1-1-1-1-1-|--0-0-0-0-0-0-0-0-0-0-0-0-0-0-0-0-|


                                                                      
----------------------------------|----------------------------------|
----------------------------------|----------------------------------|
----------------------------------|----------------------------------|
--0-0-0-0-0-0-0-0-0-0-0-0-0-0-0-0-|--1-1-1-1-1-1-1-1-1-1-1-1-1-1-1-1-|


                                                                      
----------------------------------|----------------------------------|
----------------------------------|----------------------------------|
----------------------------------|----------------------------------|
--1-1-1-1-1-1-1-1-1-1-1-1-1-1-1-1-|--0-0-0-0-0-0-0-0-0-0-0-0-0-0-0-0-|


                                                                      
----------------------------------|----------------------------------|
----------------------------------|----------------------------------|
----------------------------------|----------------------------------|
--0-0-0-0-0-0-0-0-0-0-0-0-0-0-0-0-|--1-1-1-1-1-1-1-1-1-1-1-1-1-1-1-1-|


                                                                      
----------------------------------|----------------------------------|
----------------------------------|----------------------------------|
----------------------------------|----------------------------------|
--1-1-1-1-1-1-1-1-1-1-1-1-1-1-1-1-|--0-0-0-0-0-0-0-0-0-0-0-0-0-0-0-0-|


                                                                             
----------------------------------|---------------------|-------------------|
----------------------------------|---------------------|-------------------|
----------------------------------|--0--------1---------|-------------------|
--0-0-0-0-0-0-0-0-0-0-0-0-0-0-0-0-|----------------3----|--1----------------|


                                                          
------------------|------------------|------------------||
------------------|------------------|------------------||
------------------|------------------|------------------||
------------------|------------------|------------------||





Comments


Popular Vader tabs & chords
Cold Demons 1 Tabs
Decapitated Saints Tabs
Foetus God Tabs
Outbreak Of Evil Tabs
Reign Forever World Tabs
Shadowfear Tabs
Sothis Tabs
The Code Tabs
Whisper Tabs
Wings 1 Tabs


Song lyrics



↑ Back to top | Tablatures and chords are parodies/interpretations of the original songs. You may use it for private study, scholarship, research or language learning purposes only
© 2014 AZChords.com Contact us | Privacy policy | DMCA | Add/correct tabs | Request tabs | Top 50 tabs