>
 >
Reign Carrion

Reign Carrion Guitar Tabs

Vader - Reign Carrion chords, tabs, tablatures, lyrics

Guitar lessons | Add/correct | Request | Top 50 tabs Artists:  A B C D E F G H I J K L M N O P Q R S T U V W X Y Z 0-9

Reign Carrion Guitar Tabs – Vader

CD, Sheet music, Poster

Do you like Reign Carrion? Share with your friends now
Tabs
Band: Vader
Tuning: Standard (E,A,D,G,B,E)

Intro:
|----------------------------------------------------------------------|
|----------------------------------------------------------------------|
|-----------7-6-5------------------------------------7-6-5--------6-6--|
|-3-4-5-6-7-7-6-5-3-4-5-6------------------3-4-5-6-7-7-6-5--3-4-5-6-6--|
|-3-4-5-6-7-5-4-3-3-4-5-6------------------3-4-5-6-7-5-4-3--3-4-5-4-4--|
|-1-2-3-4-5-------1-2-3-4-4444333322225555-1-2-3-4-5--------1-2-3------|
pm                        ................

|-------------|
|-------------|
|-------------|
|-6--5--4--3--|
|-6--5--4--3--|
|-4--3--2--1--|

                                                                  1st ending
|--------------------------------------------------------------| |--------|
|--------------------------------------------------------------| |--------|
|------3-----4-----5-----3------4--------3-----4-----5-----3---| |--------|
|------3-----4-----5-----3------4--------3-----4-----5-----3---| |--------|
|------1-----2-----3-----1------2--------1-----2-----3-----1---| |----3---|
|-0000---000---000---000---0000------000---000---000---000-----| |0-3---3-|
pm....   ...   ...   ...   ....      ...   ...   ...   ...        . . . . 

2nd ending
|----|
|----|
|----|
|-7--|
|-7--|
|-5--|


|---------------------------------------------------------------------|
|---------------------------------------------------------------------|
|------3-----4-----5-----3------4--------3-----4-----5-----3----------|
|------3-----4-----5-----3------4--------3-----4-----5-----3----------|
|------1-----2-----3-----1------2--------1-----2-----3-----1------3---|
|-0000---000---000---000---0000------000---000---000---000----0-3---3-|
pm....   ...   ...   ...   ....      ...   ...   ...   ...    . . . . 

|---------------------------------------------------------------------|
|---------------------------------------------------------------------|
|------3-----4-----5-----3------4--------3-----4-----5-----3------4---|
|------3-----4-----5-----3------4--------3-----4-----5-----3------4---|
|------1-----2-----3-----1------2--------1-----2-----3-----1------2---|
|-0000---000---000---000---0000------000---000---000---000---0000-----|
pm....   ...   ...   ...   ....      ...   ...   ...   ...   .... 

|---------------------------------------------------|
|---------------------------------------------------|
|---------------------------------------------------|
|-3-4-5-6------3-4-5-6------3-4-5-6------3-4-5-6--7-|
|-3-4-5-6------3-4-5-6------3-4-5-6------3-4-5-6--7-|
|-1-2-3-4-0000-1-2-3-4-0000-1-2-3-4-0000-1-2-3-4--5-|
pm        ....         ....         ....      

|---------------------------------------------------------------------|
|---------------------------------------------------------------------|
|------3-----4-----5-----3------4--------3-----4-----5-----3------4---|
|------3-----4-----5-----3------4--------3-----4-----5-----3------4---|
|------1-----2-----3-----1------2--------1-----2-----3-----1------2---|
|-0000---000---000---000---0000------000---000---000---000---0000-----|
pm....   ...   ...   ...   ....      ...   ...   ...   ...   .... 

|------------------------------------------------------------------------|
|------------------------------------------------------------------------|
|------------------------------------------------------------------------|
|-2-2---------------------5--4--8--2-2----------------------5-4-8888-2-2-|
|-2-2---------------------5--4--8--2-2----------------------5-4-8888-2-2-|
|-0-0-0-0-0-0-0-0-0-0-0-0-3--2--6--0-0-0-0-0-0-0-0-0-0-0000-3-2-6666-0-0-|
pm    . . . . . . . . . .              . . . . . . . . ....     ....

Verse Riff
|-------------------------------------------------------------------------|
|-------------------------------------------------------------------------|
|-----------------------------------3-------------------------------------|
|-2-2-2-22-2-2-2-22-2-2-2-22-2-2-22-3--2-2-22-2-2-2-22-2-2-2-22-2-2-22----|
|-2-2-2-22-2-2-2-22-2-2-2-22-2-2-22-1--2-2-22-2-2-2-22-2-2-2-22-2-2-22-3--|
|-0-0-0-00-0-0-0-00-0-0-0-00-0-0-00----0-0-00-0-0-0-00-0-0-0-00-0-0-00----|
pm. . . .. . . . .. . . . .. . . ..    . . .. . . . .. . . . .. . . .. 

|-----------------------------------------------------------------|
|-----------------------------------------------------------------|
|---------------------------------3------------------5-4-8--------|
|-2-2-22-2-2-2-22-2-2-2-22-2-2-22-3--2-2-22-2-2-2222-5-4-8----5-4-|
|-2-2-22-2-2-2-22-2-2-2-22-2-2-22-1--2-2-22-2-2-2222-3-2-6----5-4-|
|-0-0-00-0-0-0-00-0-0-0-00-0-0-00----0-0-00-0-0-0000--------0-3-2-|  (x3)
pm. . .. . . . .. . . . .. . . ..    . . .. . . ....        . . . 

end of verse
|-------|
|-------|
|-------|
|-4-5-4-|
|-4-5-4-|
|-2-3-2-|

Chorus Riff
|-------------------------------------------------------------|
|-------------------------------------------------------------|
|-------------------------------------------------------------|
|-3-4-5-6------3-4-5-6--7-2-2-2-22-2-2-2222-2-2-2-22-2-2-2222-|
|-3-4-5-6------3-4-5-6--7-2-2-2-22-2-2-2222-2-2-2-22-2-2-2222-|
|-1-2-3-4-0000-1-2-3-4--5-0-0-0-00-0-0-0000-0-0-0-00-0-0-0000-|
pm        ....            . . . .. . . .... . . . .. . . ....

|-------------------------------------------------------|
|-------------------------------------------------------|
|-------------------------------------------5-4-8-------|
|-3-4-5-6------3-4-5-6--7-2-2-2-22-2-2-2222-5-4-8-2-5-4-|
|-3-4-5-6------3-4-5-6--7-2-2-2-22-2-2-2222-3-2-6-2-5-4-|
|-1-2-3-4-0000-1-2-3-4--5-0-0-0-00-0-0-0000-------0-3-2-|
pm        ....            . . . .. . . ....       . . . 

Verse 2
|-----------------------------------------------------------------------|
|-----------------------------------------------------------------------|
|-----------------------------------3-----------------------------------|
|-2-2-2-22-2-2-2-22-2-2-2-22-2-2-22-3-2-2-22-2-2-2-22-------------------|
|-2-2-2-22-2-2-2-22-2-2-2-22-2-2-22-1-2-2-22-2-2-2-22----------33332222-|
|-0-0-0-00-0-0-0-00-0-0-0-00-0-0-00---0-0-00-0-0-0-00-44443333----------|
pm. . . .. . . . .. . . . .. . . ..   . . .. . . . ..

|--------------------------------------------------------------------|
|--------------------------------------------------------------------|
|-----------------------------------3--------9---9---9---9---9---5---|
|-2-2-2-22-2-2-2-22-2-2-2-22-2-2-22-3-2-2-22-9---9---9---9---9---5---|
|-2-2-2-22-2-2-2-22-2-2-2-22-2-2-22-1-2-2-22-7---7---7---7---7---3---|
|-0-0-0-00-0-0-0-00-0-0-0-00-0-0-00---0-0-00---0---0---0---0---0-----|
pm. . . .. . . . .. . . . .. . . ..   . . ..   .   .   .   .   . 


|-------------------------------------------------------------------------|
|-------------------------------------------------------------------------|
|-----------------------------------3-------------------------------------|
|-2-2-2-22-2-2-2-22-2-2-2-22-2-2-22-3--2-2-22-2-2-2-22-2-2-2-22-2-2-22----|
|-2-2-2-22-2-2-2-22-2-2-2-22-2-2-22-1--2-2-22-2-2-2-22-2-2-2-22-2-2-22-3--|
|-0-0-0-00-0-0-0-00-0-0-0-00-0-0-00----0-0-00-0-0-0-00-0-0-0-00-0-0-00----|
pm. . . .. . . . .. . . . .. . . ..    . . .. . . . .. . . . .. . . .. 

|-------------------------------------------------------------------|
|-------------------------------------------------------------------|
|---------------------------------3--------------------------4-5-4--|
|-2-2-22-2-2-2-22-2-2-2-22-2-2-22-3--2-2-22-2-2-2222-2-2-2-2-4-5-4--|
|-2-2-22-2-2-2-22-2-2-2-22-2-2-22-1--2-2-22-2-2-2222-2-2-2-2-2-3-2--|
|-0-0-00-0-0-0-00-0-0-0-00-0-0-00----0-0-00-0-0-0000-0-0-0-0--------|
pm. . .. . . . .. . . . .. . . ..    . . .. . . .... . . . . 

Chorus 2:
|-------------------------------------------------------------|
|-------------------------------------------------------------|
|-------------------------------------------------------------|
|-3-4-5-6------3-4-5-6--7-2--------2--------3--------2--------|
|-3-4-5-6------3-4-5-6--7-2--------2--------3--------2--------|
|-1-2-3-4-0000-1-2-3-4--5-0-0-0-00-0-0-0-00-1-0-0-00-0-0-0-00-|
pm        ....              . . ..   . . ..   . . ..   . . .. 

|---------------------------|
|---------------------------|
|---------------------------|
|-3-4-5-6------5-10-9-3-7-6-|
|-3-4-5-6------5-10-9-3-7-6-|
|-1-2-3-4-0000-3-8--7-1-5-4-|
pm        ....   

(2:27)
|------------------------------------|
|------------------------------------|
|-------4-4-4------5-5-5------7-7-7--|
|-2-----4-4-4------5-5-5------7-7-7--|
|-2-----2-2-2------3-3-3------5-5-5--|   (x2)
|-0----------------------------------|

|------------------------------------------------------------------------|
|------------------------------------------------------------------------|
|-----------4---------------5---------------9----------------------------|
|-2---------4-----2---------5-----2---------9----------------------------|
|-2---------2-----2---------3-----2---------7--------5-6-7h8p7h8p7h8p7h8-|
|-0-0-0-0-0---0-0-0-0-0-0-0---0-0-0-0-0-0-0----0-0-0---------------------| x2
pm  . . . .   . .   . . . .   . .   . . . .    . . . . . 

|--------------------------------------------------------------------|
|--------------------------------------------------------------------|
|-----------------------------------7--------6-----------------------|
|-----------------------------------7--------6--------4---4---5---8--|
|------------5----5----5----4-------5-555555-4-444444-4---4---5---8--|
|-2222222222---22---22---22---22222-------------------2-0-2-0-3-0-6--| (x2)
pm..........   ..   ..   ..   .....   ......   ......   .   .   . 

2nd ending
|-------------|
|-------------|
|-------2-3-2-|
|-7-6-7-2-3-2-|
|-7-6-7-0-1-0-|
|-5-4-5-------|

|---------------------------------------------------------|
|---------------------------------------------------------|
|----------5--------------4--------------2--------3-4-5---|
|-4--------5--------------4--------------2--------3-4-5-5-|
|-4--------3--------------2--------------0--------1-2-3-5-|
|-2-222222---22222-222222---22222-222222---222222-------3-|
pm  ......   ..... ......   ..... ......   ......  

2nd ending
|------|
|------|
|-5----|
|-5-5--|
|-3-5--|
|---3--|

|---------------------------------------------------------------------------|
|---------------------------------------------------------------------------|
|---------------3---------------5--------------4--------------2-------------|
|-5-------------3------4--------5--------------4--------------2--------4-467|
|-5-------------1------4--------3--------------2--------------0--------4-467|
|-3-33333333333--------2-222222---22222-222222---22222-222222---222222-2-245|
pm  ...........          ......   ..... ......   ..... ......   ......

(3:28)
|-------------------------------------|
|-------------------------------------|
|------4\3------4\3------3/5------4\3-|
|------4\3------4\3------3/5------4\3-|
|-0000-2\1-0000-2\1-0000-1/3-0000-2\1-|
|-------------------------------------|  (x3)
pm....     ....     ....     .... 

|------------------------|
|------------------------|
|-5555555555555555-5-4-3-|
|-5555555555555555-5-4-3-|
|-3333333333333333-3-2-1-|
|------------------------|

|-------------------------------------|
|-------------------------------------|
|------4\3------4\3------3/5------4\3-|
|------4\3------4\3------3/5------4\3-|
|-0000-2\1-0000-2\1-0000-1/3-0000-2\1-|
|-------------------------------------|  
pm....     ....     ....     ....

|------------------------|
|------------------------|
|-5555555555555555-5-4-3-|
|-5555555555555555-5-4-3-|
|-3333333333333333-3-2-1-|
|------------------------|

|-------------------------------------|
|-------------------------------------|
|------4\3------4\3------3/5------4\3-|
|------4\3------4\3------3/5------4\3-|
|-0000-2\1-0000-2\1-0000-1/3-0000-2\1-|
|-------------------------------------|  
pm....     ....     ....     ....

|----------------------------------------------------|
|----------------------------------------------------|
|-----------------2222222222222222-------------------|
|-55555555333333332222222222222222--5555555533333333-|
|-55555555333333330000000000000000--5555555533333333-|
|-3333333311111111------------------3333333311111111-|

|-------------------------------------|
|-------------------------------------|
|------4\3------4\3------3/5------4\3-|
|------4\3------4\3------3/5------4\3-|
|-0000-2\1-0000-2\1-0000-1/3-0000-2\1-|
|-------------------------------------|  
pm....     ....     ....     ....

|------------------------|
|------------------------|
|-5555555555555555-5-4-3-|
|-5555555555555555-5-4-3-|
|-3333333333333333-3-2-1-|
|------------------------|

|-------------------------------------|
|-------------------------------------|
|------4\3------4\3------3/5------4\3-|
|------4\3------4\3------3/5------4\3-|
|-0000-2\1-0000-2\1-0000-1/3-0000-2\1-|
|-------------------------------------|  
pm....     ....     ....     ....

|------------------------|
|------------------------|
|-5555587555555555-5-4-3-|
|-5555587555555555-5-4-3-|
|-3333365333333333-3-2-1-|
|------------------------|

|-------------------------------------|
|-------------------------------------|
|------4\3------4\3------3/5------4\3-|
|------4\3------4\3------3/5------4\3-|
|-0000-2\1-0000-2\1-0000-1/3-0000-2\1-|
|-------------------------------------|  
pm....     ....     ....     ....

|--------------------------------------------------------|
|--------------------------------------------------------|
|-----------------2222222222222222-----------------------|
|-55555555333333332222222222222222--5555555533333333--2--|
|-55555555333333330000000000000000--5555555533333333--2--|
|-3333333311111111------------------3333333311111111--0--|

Solo Backing:
|--------------------------------------------------------------------|
|--------------------------------------------------------------------|
|-------------5\4--------------5\4--------------8\7--------------8\7-|
|-------------5\4--------------5\4--------------8\7--------------8\7-|
|-------------3\2--------------3\2--------------6\5--------------6\5-| (x2)
|-222222222222----222222222222-----555555555555-----555555555555-----|
pm............    ............     ............     ............

|--------------------|
|--------------------|
|--------------------|
|-9-5-8-11-9-5-8-5\4-|
|-9-5-8-11-9-5-8-5\4-|
|-7-3-6-9--7-3-6-3\2-|

|--------------------------------------------|
|--------------------------------------------|
|--------------------------------------------|
|--------------------------------------------|
|--------1h2-------1h2--------1h2--------1h2-|
|-000000-----000000----000000-----000000-----|  (x4)
pm......     ......    ......     ......

|-------------------------------------------------------|
|-------------------------------------------------------|
|-------------------------------------------------------|
|-3--------4--------5--------6--------7--8--9--10-11/12-|
|-3--------4--------5--------6--------7--8--9--10-11/12-|
|-1-111111-2-222222-3-333333-4-444444-5--6--7--8--9/10--|
pm  ......   ......   ......   ......

|-----------------------------|
|-----------------------------|
|--------3-------------5------|
|-2------3------2------5------|
|-2------1------2------3------|
|-0-------------0-------------|

|------------------------------------------------------------------------|
|------------------------------------------------------------------------|
|----------------------------------3-------------------------------------|
|-2--------2-------2--------2------3--2--------2-------2--------2--------|
|-2--------2-------2--------2------1--2--------2-------2--------2------3-|
|-0-0-0-00-0-0-000-0-0-0-00-0-0-00----0-0-0-00-0-0-000-0-0-0-00-0-0-00---|
pm  . . ..   . ...   . . ..   . ..      . . ..   . ...   . . ..   . .. 

|------------------------------------------------------------------------|
|------------------------------------------------------------------------|
|----------------------------------3-------------------5-4-7-8-9---------|
|-2--------2-------2--------2------3--2--------2-------5-4-7-8-9---------|
|-2--------2-------2--------2------1--2--------2-------3-2-5-6-7---------|
|-0-0-0-00-0-0-000-0-0-0-00-0-0-00----0-0-0-00-0-0-000-------------------|
pm  . . ..   . ...   . . ..   . ..      . . ..   . ... 

i just got lazy near the end but you can work it out, its just variations of the last
riff and a previous riff.
thats everything except the solo. have fun, it took long enough to write this!





Comments


Popular Vader tabs & chords
Reborn In Flames Bass Tabs
Creatures Of Light And Darkness Tabs
Death In Silence Tabs
Fear Of Napalm Tabs
Flag Of Hate Tabs
Outbreak Of Evil Tabs
Reborn In Flames Tabs
Revolt Tabs
Shadowfear Tabs
Wings 2 Tabs


Song lyrics



↑ Back to top | Tablatures and chords are parodies/interpretations of the original songs. You may use it for private study, scholarship, research or language learning purposes only
© 2014 AZChords.com Contact us | Privacy policy | DMCA | Add/correct tabs | Request tabs | Top 50 tabs