>
 >
Red Passage

Red Passage Guitar Tabs

Vader - Red Passage chords, tabs, tablatures, lyrics

Guitar lessons | Add/correct | Request | Top 50 tabs Artists:  A B C D E F G H I J K L M N O P Q R S T U V W X Y Z 0-9

Red Passage Guitar Tabs – Vader

CD, Sheet music, Poster

Do you like Red Passage? Share with your friends now
Tabs
Band: Vader


obie gitary:
e-----------|
B-----------|
G-----------|
D-----------|
A--8m-7m-5--|
E--6m-5m-3--|


e---------------------------------------------------------------------------------------------|
B---------------------------------------------------------------------------------------------|
G---------------------------------------------------------------------------------------------|
D-------------6-----5-------------6-----4---------------------6-----5-------------------------|
A--4-4m4m4m4m-4--0m-3--4m4m4m4m4m-4--0m-2--------5/4-4m4m4m4m-4--0m-3--4m4m4m4m4m-5-5-------5-|
E--2-2m2m2m2m----------2m2m2m2m2m----------2m-0m-3/2-2m2m2m2m----------2m2m2m2m2m-3-3-6m-5m-3-|


e---------------------------------------------------------------------------------------------|
B---------------------------------------------------------------------------------------------|
G---------------------------------------------------------------------------------------------|
D-------------6-----5-------------6-----4---------------------6-----5-------------------------|
A--4-4m4m4m4m-4--0m-3--4m4m4m4m4m-4--0m-2--------5/4-4m4m4m4m-4--0m-3--4m4m4m4m4m-5-5-------5-|
E--2-2m2m2m2m----------2m2m2m2m2m----------2m-0m-3/2-2m2m2m2m----------2m2m2m2m2m-3-3-6m-5m-3-|

I gitara ( jednocześnie z drugą ):
e-------------------------|
B-------------------------|
G-------------------------|
D-------------------------|
A-4--4--4--4--4--4--4--4--|
E-2--2--2--2--2--2--2--2--|

II gitara:
e-------------------------|
B-------------------------|
G-------------------------|
D-------------------------|
A-4m4m4m4m4m4m4m4m4m4m...-|
E-2m2m2m2m2m2m2m2m2m2m...-|

Obie gitary:
e--------------------------------------------------------------------|
B--------------------------------------------------------------------|
G--------------------------------------------------------------------|
D--------------4--5--------------------4--5--------------------4--5--|
A-5/4-4m4m4m4m-2--3-------5/4-4m4m4m4m-2--3-------5/4-4m4m4m4m-2--3--|
E-3/2-2m2m2m2m-------2m-0-3/2-2m2m2m2m-------2m-0-3/2-2m2m2m2m-------|


e-----------------------------|
B-----------------------------|
G-----------------------------|
D-------------------4--5------|
A------5/4-4m4m4m4m-2--3--/7--|
E-2m-0-3/2-2m2m2m2m-------/5--|

e------|
B------|
G------|
D------|
A-4-4--|
E-2-2--|

I gitara:
e-------------------|
B-------------------|
G-------------------|
D-------------------|
A-4m4m4m4m4m4m4m...-|
E-2m2m2m2m2m2m2m...-|

Obie gitary:
e----------|
B----------|
G----------|
D----------|
A-5-5--5-5-|
E-3-3--3-3-|

Fig.1:
e---------------------------------------------------|
B---------------------------------------------------|
G---------------------------------------------------|
D---------------------------------------------------|
A--------3~4-333333322222222------------------------|
E-2222222-------------------33333300000333330000000-|
  Rise!!!

e---------------------------------|
B---------------------------------|
G---------------------------------|
D---------------------------------|
A--------3~4-333333322222222-5-5--|
E-2222222--------------------3-3--|

Fig.2 (x2)
e---------------------------------------------------|
B---------------------------------------------------|
G---------------------------------------------------|
D---------------------------------------------------|
A--------3~4-333333322222222------------------------|
E-2222222-------------------33333300000333330000000-|
  A dive up with head down moth-winged Angel's shriek
  excretion condensed dignity disrespect

Fig.3 I gitara (x2, przy drugim razie wchodzi gitara II):
e--------------------------------------|
B--------------------------------------|
G--------------------------------------|
D--------------------------------------|
A---------3333333--------221111111-----|
E-22222222-------33333333---------3333-|
  The Crown of Manhood means nothing here
  not for sheep they pray they bless the butcher's knife

Fig.4 (x2)
e---------------------------------------------------|
B---------------------------------------------------|
G---------------------------------------------------|
D---------------------------------------------------|
A--------3~4-333333322222222------------------------|
E-2222222-------------------33333300000333330000000-|

Fig.5 (obie jednocześnie)
I gitara (x2)
e-----------------------------|
B-----------------------------|
G-----------------------------|
D-----------------------------|
A-----------------------------|
E-333333-5m6m-5-333333-5m6m-5-|

II gitara (x2)
e-------------------------------|
B-------------------------------|
G-------------------------------|
D-------------------------------|
A-------------------------------|
E-333333-5m6m-5^-333333-5m6m-5^-|
  A chant of turbid light sombre consolation
  carry me, oh Hydra Mother to gods of festering wounds

Fig.6 (solo1) podkład:
e------------------------------|
B------------------------------|
G------------------------------|
D------------------------------|
A-------------000000-------5-5-|
E-222222111111------000000-3-3-|

Repeat Fig.4 (x4)
The Crown of Manhood  means nothing here
not for sheep they pray they bless the butcher's knife

Fig.7 (solo2) podkład:
e------------------------|
B------------------------|
G------------------------|
D------------------------|
A------------------------|
E-333333-5~6-5-333333...-|

 (x2):
e--------------------------------------|
B--------------------------------------|
G--------------------------------------|
D--------------------------------------|
A---------3333333--------221111111-----|
E-22222222-------33333333---------3333-|

Repeat Fig.4 (x2) obie gitary)
Repeat Fig.5

Fig.8
 I gitara:
e--------------------------------------|
B--------------------------------------|
G--------------------------------------|
D--------------------------------------|
A---------3333333--------221111111-----|
E-22222222-------33333333---------3333-|

 obie gitary:
e---------------------------------------------------|
B---------------------------------------------------|
G---------------------------------------------------|
D---------------------------------------------------|
A--------3~4-333333322222222------------------------|
E-2222222-------------------33333300000333330000000-|

e--------------------------------------|
B--------------------------------------|
G--------------------------------------|
D--------------------------------------|
A--------3~4-3333333-5-5-5-5-5-5-5-5-4-|
E-2222222------------3-3-3-3-3-3-3-3-2-|





Comments


Popular Vader tabs & chords
Silent Empire Bass Tabs
Xepher Bass Tabs
Angel Of Death Tabs
Black To The Blind 1 Tabs
Dark Age Tabs
Distant Dream Tabs
Sothis Tabs
What Colour Is Your Blood Tabs
Wings 1 Tabs
Wings 2 Tabs


Song lyrics



↑ Back to top | Tablatures and chords are parodies/interpretations of the original songs. You may use it for private study, scholarship, research or language learning purposes only
© 2014 AZChords.com Contact us | Privacy policy | DMCA | Add/correct tabs | Request tabs | Top 50 tabs