>
 >
Reborn In Flames

Reborn In Flames Bass Tabs

Vader - Reborn In Flames chords, tabs, tablatures, lyrics

Guitar lessons | Add/correct | Request | Top 50 tabs Artists:  A B C D E F G H I J K L M N O P Q R S T U V W X Y Z 0-9

Reborn In Flames Bass Tabs – Vader

CD, Sheet music, Poster

Do you like Reborn In Flames? Share with your friends now
Bass TabsTabs
Band: Vader
*** ORIGINALLY BY "Lalith Vipulananthan" ***


Rhythm guitar transcribed on bass
Tuning (Low to High) - D G C F

A	                  Play 5 times
|----------------------------------|
|----------------------------------|
|----------------------------------|
|-11111111111133440000000000000000-|


|----------------------------------|
|----------------------------------|
|-------------------------22-2-2-2-|
|-11111111111133440000000000-0-0-0-|
|                         .. . . .
|
|----------------------------------|
|----------------------------------|
|----------------------------------|
|-11111111111133440000000000000000-|


B						                     Guitar 1
|------------------|------------------|------------------|------------------|
|--2------------5--|-3----------------|------------------|------------------|
|--0------------3--|-1-------------3--|-2----------------|-----2-2---2-2----|
|------------------|---------------1--|-0----------------|-----0-0---0-0----|
| 		    .                  .                           . .   . .
|		                                                     Guitar 2
|------------------|------------------|------------------|------------------|
|------------------|------------------|------------------|------------------|
|-0000000000000000-|-1111111111111111-|------------------|------------------|
|------------------|------------------|-0000000000000000-|-0000000000000000-|

								      Guitar 1
|------------------|------------------|------------------|-------------------|
|-2-------------5--|------------------|------------------|-9---7---10---9/10-|
|-0-------------3--|-3----------------|-2----------------|-7---5---8----7/8--|
|------------------|-1-------4--3--1--|-0----------------|-------------------|
|               .
|	 						       	      Guitar 2
|------------------|------------------|------------------|-------------------|
|------------------|------------------|------------------|-------------------|
|-0000000000000000-|------------------|------------------|-------------------|
|------------------|-1111111111111111-|-0000000000000000-|-00000000000000000-|


C1 (both guitars)
|---------------------------------------------------------------|
|---------------------------------------------------------------|
|-000000000000003311111111111-----------------------------------|
|----------------------------1100000000000000000000000000000000-|

C2
|---------------------------------------------------------------------|
|---------------------------------------------------9---7---10---9/10-|
|-0000000000000033----------------------------------7---5---8----7/8--|
|-----------------11111111-4--3--1--000000000000000-------------------|


Repeat C1

C3
|------------------------------------|
|------------------------------------|
|-0000000000000033-------------------|
|-----------------1111111111111111-0-|


Fill 1			                                   Guitar 1
|-----------------------------------------------------------------|
|--4-------5--------7--------3----2-5-4------5------7------5------|
|--2-------3--------5--------1----0-3-2------3------5------3------|
|---------------------------------------0000---0000---0000---0000-|
|					....   ....   ....   ....
|			                                   Guitar 2
|-----------------------------------------------------------------|
|--4-------5--------7--------3----2-5-4---------------------------|
|--2-------3--------5--------1----0-3-2---------------------------|
|-----------------------------------------------------------------|


D (both guitars)

         [1,3]                           [2]
|-----------------------------|-----------------------------|
|-4------5------7------5------|-4------5------7------3--2-5-|
|-2------3------5------3------|-2------3------5------1--0-3-|
|---0000---0000---0000---0000-|---0000---0000---0000--------|
    ....   ....   ....   ....     ....   ....   ....

                [4]
|-----------------------------------|
|-4------5------7------3--2--4------|
|-2------3------5------1--0--2-2--2-|
|---0000---0000---0000---------0--0-|
    ....   ....   ....            .


E1            [1,3]                    [2]
|--------------------------------|---------------|
|--------------------------------|---------------|
|---3h4--------3h4-------3h4-----|---3h4-2-3-----|
|-2-----2-3--2-----2-3-2-----2-3-|-2---------0-2-|
                                         . . . .
Fill 2        Left Channel
|-------------|
|-------------|
|---3h4---2h3-|
|-2-----0-----|
|	        Right Channel
|-------------|
|-------------|
|---3h4-------|
|-2-----------|


E2      [1,3,5,7] 		 	   [2,6]
|--------------------------|-----------------------------|
|--------------------------|-----------------------------|
|---3h4------------3h4-----|---3h4-------------3h4-------|
|-2-----22222222-2-----2-3-|-2-----22222222--2-----0-2h3-|

              [4] 		 	    [8]
|------------------------------|---------------------|
|-------------------------5-7--|-7---6-----5---4-----|
|---3h4----------22222222-3-5--|-5---4-----3---2-----|
|-2-----22222222---------------|-------0-0-------0-0-|
                                       . .       . .

Fill 3							Left Channel
|------------------------------------------------------------------|
|--------------------------------------------------------------4-5-|
|-----2-3-----2-3-----2-3-----2-3------------------------------2-3-|
|-2-------2-------2-------2-------2222222222222222222222222222-----|
|     . .     . .     . .     . .
|						       Right Channel
|------------------------------------------------------------------|
|--------------------------------------------------------------4-5-|
|-4------------------------------------------------------------2-3-|
|-2-------------------------------2222222222222222222222222222-----|

					     Left Channel
|-------------------------------------------------------|
|----------------------5-4--------------------------5\4-|
|----------------------3-2----5--55--55---5--55--55-3\2-|
|-22223222232222322222--------3--33--33---3--33--33-----|
|                             .  ..  ..
|					     Right Channel
|-------------------------------------------------------|
|---------------------------------------------------5\4-|
|-4-------------------------------------------------3\2-|
|-2--------------------3333333333333333333333333333-----|
  .

F           [1,3]				          [2]
|------------------------------|-------------------------------|
|---------------------------Ah-|-------------------------------|
|---------------------------3--|---------------------------3p2-|
|-2222223222222322222232222----|-2222223222222322222232222-----|

Fill 4      Guitar 1
|-----------|
|---Ah-Ah---|
|-0--3-2----|
|-----------|
|	      Guitar 2
|-----------|
|-2--5-4----|
|-0--3-2----|
|-----------|


Repeat F

Fill 5
|---------|
|-----5-4-|
|-2-3-3-2-|
|-0-1-----|

Repeat F

Fill 6
|-------------------------------|
|-------------------------------|
|---------------------------3p2-|
|-2222223222222322222232222-----|


G             [1,3]				         [2]
|----------------------------------|----------------------------------|
|-2-----5--------------------------|-2-----5--------------------------|
|-0-----3-2222222------------------|-0-----3-1111111------------------|
|----------------32222222222222222-|----------------32222222222222222-|

	    [4]
|--------------------|
|-2-----5------------|
|-0-----3------------|
|---------1111111100-|


H (guitar 1 only)	   Play twice
|-----------------------------|
|---------------5------5------|
|-2------2------3--3-3-3--3-3-|
|-0--0-0-0--0-0---------------|
     . .    . .    . .    . .


Repeat H x 2 (both guitars)
Repeat F, Fill 6, F, Fill 6
Repeat G (replacing 4th measure of G with G')
G'      [4]
|------------------|
|-2-----5----------|
|-0-----3----------|
|---------11111111-|


I			     Play 4 times
|---------------------------------|
|---------------------------------|
|---------------------------------|
|-0-0-0-0-0-0-0-0-0-0-0-0-0-0-0-0-|
  . . . . . . . . . . . . . . . .

Repeat I x 3.5 w/I' (1st two measure of I' = I x 1, 3rd measure = I x 1.5!)I'
|-10----|-7----|-9------|
|-10----|-7----|-9------|
|-8-----|-5----|-7------|
|-------|------|--------|


J (crunch!)
|---------------------------------------------------------------|
|-5-4-----------------------------------------------------------|
|-3-2-3-2-------------3---------------3---------------3---------|
|-----1-0--000--0000001--00000--0000001--00000--0000001--000000-|
  . . .    ...  ......   .....  ......   .....  ......   ......Fill 5
|--------------------|
|-5-4----------5-4---|
|-3-2-3-2------3-2-4-|
|-----1-0----------2-|
  . . .        . . .


K1 (under solo 3)
|---------------------------------------------------------|
|---------------------------------------------------5-4---|
|---------------------------------------------------3-2-4-|
|-333333333333334-33333346---3-4-33333333334-333333-----2-|
                                                    . . .

K2	 [1] 		   [2-4]	     [5]
|------------------|----------------------|-------|
|------------------|----------------------|-5-4---|
|-2----------------|----------------------|-3-2-4-|
|-0-00000000000000-|-00000000000000000000-|-----2-|
    ..............   ....................   . . .

Repeat K1Fill 6    Lead guitar
|---------------|
|---------------|
|---------6\5-3-|
|---------4\3-1-|
|             .
|	  Rhythm guitar
|---------------|
|---------------|
|-3-------6-5-3-|
|-1-------4-3-1-|
          . . .


L 							 Left Channel
|-------------------------------------------------------------------|
|-------------------------------------------------------------------|
|-2------(2)------(2)------(2)------(2)------(2)------(2)----/6-5-3-|
|-0------(0)------(0)------(0)------(0)------(0)------(0)----/4-3-1-|
|
|							 Right Channel
|-------------------------------------------------------------------|
|-------------------------------------------------------------------|
|-2------(2)------(2)------(2)------(2)------(2)------(2)---------3-|
|-0------(0)------(0)------(0)------(0)------(0)------(0)---------1-|
                                                                  .

(both guitars)
|-------------------------------------------------------------------|
|-------------------------------------------------------------------|
|-2------(2)------(2)------(2)------(2)------(2)------(2)------3--3-|
|-0------(0)------(0)------(0)------(0)------(0)------(0)------1--1-|


|-------------------------------------------------------------------|
|-------------------------------------------------------------------|
|-2------(2)------(2)------(2)------(2)------(2)------/6----5-----3-|
|-0------(0)------(0)------(0)------(0)------(0)------/4----3---0-1-|
  .                                                             . .

							          hold till fade and feedback
|----------------------------------------------------------------|-------------|
|----------------------------------------------------------------|-------------|
|-2------(2)------(2)------(2)------(2)------(2)------(2)----3-3-|-2-----------|
|-0------(0)------(0)------(0)------(0)------(0)------(0)----1-1-|-0-----------|
                                                             . .

Repeat E1, Fill 2

E2'     [1,3,5,7] 		        [2,6]
|--------------------------|-----------------------------|
|--------------------------|-----------------------------|
|---3h4------------3h4-----|---3h4-------------3h4-------|
|-2-----22222222-2-----2-3-|-2-----22222222--2-----0-2h3-|

           [4,8]
|------------------------------|
|-------------------------5-7--|
|---3h4----------22222222-3-5--|
|-2-----22222222---------------|

Outro
|---------------------|
|----------5-7------6-|
|-22222222-3-5--4-5-4-|
|---------------2-3---|





Comments


Popular Vader tabs & chords
Dark Transmission Tabs
Foetus God Tabs
Of Moon, Blood, Dream And Me Tabs
Out Of The Deep Tabs
Outbreak Of Evil Tabs
Silent Empire Tabs
Whisper Tabs
Wings Tabs
Wings 2 Tabs
Xeper Tabs


Song lyrics



↑ Back to top | Tablatures and chords are parodies/interpretations of the original songs. You may use it for private study, scholarship, research or language learning purposes only
© 2014 AZChords.com Contact us | Privacy policy | DMCA | Add/correct tabs | Request tabs | Top 50 tabs