>
 >
Out Of The Deep

Out Of The Deep Guitar Tabs

Vader - Out Of The Deep chords, tabs, tablatures, lyrics

Guitar lessons | Add/correct | Request | Top 50 tabs Artists:  A B C D E F G H I J K L M N O P Q R S T U V W X Y Z 0-9

Out Of The Deep Guitar Tabs – Vader

CD, Sheet music, Poster

Do you like Out Of The Deep? Share with your friends now
Tabs
Band: Vader

Copyright (c) Metal Blade Records, 2004
Version 2.0  10/4/2006


Code:
. - palm mute           / - slide up to
\ - slide down to       x  Staccato
h - hammer on           p - pull off
, - slight palm mute    () - ghost note, sustained note
" - tremolo note        <> - Trill
L  left channel only   R  right channel only
* - see comment

Suffixes for bend
f - full bend       h - half bend
q - quarter bend    t - tap bend
^ - Hold bend       r - release bend
~ - vibrato bend

Suffixes for harmonic
ph - pinched harmonic   n  natural/artificial harmonic


Tuning C# F# B E G# C#

Intro A (0:00)
|-----------------------------------------------------------|
|-----------------------------------------------------------|
|-----------------------------------------------------------|
|-----5/6----------------2"----------5/6--------------------| gtr 1
|-----3/4--------------------5"------3/4----------------3"--|
|-2"------2"---5"--4"-2"---------2"------2"---5"--4"-0"-----|


|-----------------------------------------------------------|
|-----------------------------------------------------------|
|-----------------------------------------------------------|
|-----------------------------------------------------------| gtr 2
|-4---------------------------------------------------------|
|-2---------------------------------------------------------|
  x

Intro B (0:08)
|-----------------------------------------------------------|
|-----------------------------------------------------------|
|-----------------------------------------------------------|
|-----5/6----------------2"----------5/6--------------------| gtr 1
|-----3/4--------------------5"------3/4----------------3"--|
|-2"------2"---5"--4"-2"---------2"------2"---5"--4"-0"-----|


|-----------------------------------------------------------|
|-----------------------------------------------------------|
|-----------------------------------------------------------|
|-----------------------------------------------------------| gtr 2
|-4------------------------------4-4-----4-4--7"--6"----9"--|
|-2------------------------------2-2-----2-2----------------|
                                 . .     . .


Riff 1 (0:16) play twice
|-----------------------------------------------------------------|
|-----------------------------------------------------------------|
|-----------------------------------------------------------------|
|-----5/6------------------2"------------5/6----------------------| gtr 1
|-----3/4----------------------5"4"------3/4------------------3"--|
|-2"------2"---4"5"--4"-2"-----------2"------2"---4"5"--4"-0"-----|

|-----------------------------------------------------------------|
|-----------------------------------------------------------------|
|-----------------------------------------------------------------|
|-----5/6------------------2"------------5/6----------------------| gtr 2
|-----3/4----------------------5"4"------3/4------------------3"--|
|-2"------2"---4"5"--4"-2"-----------2"------2"---4"5"--4"-0"-----|


Fill 1 (0:32)
|---------------------------|
|---------------------------|
|---------------------------|
|---------------------------| gtr 1
|---------------------------|
|-5"----6"-8"-5"----6"-8"---|

|---------------------------|
|---------------------------|
|---------------------------|
|---------------------------| gtr 2
|-7--7--8-----7--7--8-------|
|-5--5--6-----5--5--6-------|
  .  .  .     .  .  .


Riff 2 (0:34)
Guitar 1 plays twice
Guitar 2 plays once
|------------------------------------------|
|------------------------------------------|
|------------------------------------------|
|-----------4------------------------------| gtr 1
|-2---------2---------5"-------------------|
|-0-0-0-0-0---0-0-0-0-----6"--8"--5"--7"---|
    . . . .   . . . .
|------------------------------------------|
|------------------------------------------|
|------------------------------------------|
|------------------------------------------| gtr 2
|-2----------------------------------------|
|-0----------------------------------------|



Riff 3 (0:41) play twice
|----------------------------------|
|----------------------------------|
|----------------------------------|
|----------------------------------| gtr 1
|-----2"--3"------3"--5"--3"--2"---|
|-0"----------5"-------------------|

|----------------------------------|
|----------------------------------|
|----------------------------------|
|-----------------5"--7"--5"--4"---| gtr 2
|-----2"--3"-----------------------|
|-0"----------5"-------------------|


Riff 4 (0:49)
|-------------------------------------------------------------------|
|-------------------------------------------------------------------|
|-------------------------------------------------------------------|
|-------------------------------------------------------------------| gtr 1
|-------------------------------------------------------------------|
|-2"----3"--5"-6"-2"----3"--5"-6"-2"----3"--2-3-2-3-2"----3"-5"-6"--|
                                            . . . .
|-------------------------------------------------------------------|
|-------------------------------------------------------------------|
|-------------------------------------------------------------------|
|-------------------------------------------------------------------| gtr 2
|---------------------------------4"----5"--4-5-4-5-----------------|
|-2"----3"--5"-6"-2"----3"--5"-6"-----------------------------------|
                                            . . . .


Riff 5 (0:58)
|------------------------------------------------|
|------------------------------------------------|
|------------------------------------------------|
|------------------------------------------------| gtr 1
|----7"---------------------7"-------------------|
|-0"----6"-8"---5"-6"-7"-0"----6"-8"---5"-6"-7"--|

|------------------------------------------------|
|------------------------------------------------|
|------------------------------------------------|
|------------------------------------------------| gtr 2
|----7"---------------------7"-------------------|
|-0"----6"-8"---5"-6"-7"-0"----6"-8"---5"-6"-3"--|


Riff 6 (1:05)
|----------------------------------------------------------|
|----------------------------------------------------------|
|----------------------------------------------------------|
|----------------------------------------------------------| gtr 1
|----------------------------------------------------------|
|-4443334441"---3"-4"--1"---3"-4"--1"---3"-4"--1"---3"-4"--|
  .........
|----------------------------------------------------------|
|----------------------------------------------------------|
|----------------------------------------------------------|
|----------------------------------------------------------| gtr 1
|----------------------------------3"---5"-6"--3"---5"-6"--|
|-4443334441"---3"-4"--1"---3"-4"--------------------------|


Riff 2 x 1/2 (1:15)


Riff 7 (1:18) play twice
|-------------------------------------------------------------|
|-------------------------------------------------------------|
|-------------------------------------------------------------|
|-------------------------------------------------------------| gtr 1
|-------------------------------------------------------------|
|-2"----3"--5"-6"-2"----3"--5"-6"-2"----3"--5"-6"-2"----3"----|

|-------------------------------------------------------------|
|-------------------------------------------------------------|
|-------------------------------------------------------------|
|-------------------------------------------------------------| gtr 2
|---------------------------------4"----5"--7"-8"-4"----5"----|
|-2"----3"--5"-6"-2"----3"--5"-6"-----------------------------|


Fill 2 (1:35)
|-------|
|-------|
|-------|
|-------| gtr 1
|-5-----|
|-3-----|

|-------|
|-------|
|-------|
|-------| gtr 2
|-5-----|
|-3-----|

Riff 5 x 1 (1:36)


Riff 8 (1:44)
|----------------------------------------------------------|
|----------------------------------------------------------|
|----------------------------------------------------------|
|----------------------------------------------------------| gtr 1
|-5-5-5-5--------------------------------------------------|
|-3-3-3-3--1"---3"-4"--1"---3"-4"--1"---3"-4"--1"---3"-4"--|
  . . . .
|----------------------------------------------------------|
|----------------------------------------------------------|
|----------------------------------------------------------|
|----------------------------------------------------------| gtr 2
|-5-5-5-5--------------------------3"---5"-6"--3"---5"-6"--|
|-3-3-3-3--1"---3"-4"--1"---3"-4"--------------------------|
  . . . .

Riff 7 x 1 (1:53)

Fill 3 (2:01)
|----------------------------------------------|
|----------------------------------------------|
|---------------------------drums--------------|
|----------------------------------------------| gtr 1
|-2---5-4-2------------8-7----------------8-7--|
|-0---3-2-00"--1"--0"--6-5----------3"----6-5--|
                                    .
|----------------------------------------------|
|----------------------------------------------|
|---------------------------drums--------------|
|----------------------------------------------| gtr 2
|-2---5-4-2------------8-7----------------8-7--|
|-0---3-2-0------------6-5----------3"----6-5--|
                                    .

Riff 3 x 2 (2:09)

Fill 4 (2:25)
|------------------------------------------------|
|------------------------------------------------|
|------------------------------------------------|
|--------------------5-4---------------------5-4-| gtr 1
|-4-5-4--8-7---8-7---3-2-4-5-4---8-7---8-7---3-2-|
|-2-3-2--6-5---6-5-------2-3-2---6-5---6-5-------|

|------------------------------------------------|
|------------------------------------------------|
|------------------------------------------------|
|--------------------5-4---------------------5-4-| gtr 2
|-4-5-4--8-7---8-7---3-2-4-5-4---8-7---8-7---3-2-|
|-2-3-2--6-5---6-5-------2-3-2---6-5---6-5-------|


Under Solo I - Riff 9 (2:33) play twice
|-----------------------------------------------------------|
|-----------------------------------------------------------|
|-----------------------------------------------------------|
|-----------------------------------------------------------| gtr 2
|------7-8----------------5"---------7-8--------------------|
|-0"---5-6-0"---3"--2"-0"-------0"---5-6-0"---3"--2"-0"-1"--|


Riff 5 x 1 (2:49)
Riff 6 x 1 (2:56)

Riff 10 (3:06) * indicates ultra-heavy palm mute
|--gtr 1 plays the---------|-gtr 1 plays Solo II-----|
|--same as this------------|-------------------------|
|--------------------------|-------------------------|
|--------------------6-----|-------------------------| gtr 2
|-2----6--5--6--3----4-----|-2----6--5--6--3----5----|
|-0----4--3--4--1----4-----|-0----4--3--4--1----3----|
       *  *  *                    *  *  *

Fill 5 (3:22)
|-----------------------------------------------------------|
|-----------------------------------------------------------|
|-----------------------------------------------------------|
|-----5/6----------------2"----------5/6--------------------| gtr 1
|-----3/4--------------------5"------3/4--------------------|
|-2"------2"---5"--4"-2"---------2"------2"---5"--4"-0"-3"--|


Under Solo III - Riff 11 (3:30) play twice
|--------------------------------------------------------|
|--------------------------------------------------------|
|--------------------------------------------------------|
|-----5/6-------------------------5/6--------------------| gtr 2
|-----3/4----------------5"-------3/4--------------------|
|-2"------2"---5"--4"-2"------2"------2"---5"--4"-0"-3"--|


Fill 6 (3:46)
|-------|
|-------|
|-------|
|-5-----| gtr 1
|-3-----|
|-3-----|

|-------|
|-------|
|-------|
|-5-----| gtr 2
|-3-----|
|-3-----|


Riff 12 (3:47) play 4 times   * This riff is slower
|-----------------------------------|
|-----------------------------------|
|-----------------------------------|
|-----------------------------------| gtr 1
|-----------------------------------|
|-32222222222232351111111111111111--|
  ................................
|-----------------------------------|
|-----------------------------------|
|-----------------------------------|
|-----------------------------------| gtr 2
|-----------------------------------|
|-32222222222232351111111111111111--|
  ................................

Riff 3 x 2 (4:04)
Riff 6 x 1 (4:20)
Riff 5 x 2 (4:29)


Ending riff (4:44)
|---------------------------|
|---------------------------|
|---------------------------|
|---------------------------| gtr 1
|-4-5-4--8-7---8-7---2-4-2--|
|-2-3-2--6-5---6-5---0-2-0--|

|---------------------------|
|---------------------------|
|---------------------------|
|---------------------------| gtr 2
|-4-5-4--8-7---8-7---2-4-2--|
|-2-3-2--6-5---6-5---0-2-0--|

End





Comments


Popular Vader tabs & chords
Reborn In Flames Bass Tabs
Silent Empire Bass Tabs
Black To The Blind Tabs
Carnal Tabs
Death In Silence Tabs
Distant Dream Tabs
Red Passage Tabs
Reign Forever World 1 Tabs
Storm Of Stress Tabs
Wings 2 Tabs


Song lyrics



↑ Back to top | Tablatures and chords are parodies/interpretations of the original songs. You may use it for private study, scholarship, research or language learning purposes only
© 2014 AZChords.com Contact us | Privacy policy | DMCA | Add/correct tabs | Request tabs | Top 50 tabs