>
 >
North

North Guitar Tabs

Vader - North chords, tabs, tablatures, lyrics

Guitar lessons | Add/correct | Request | Top 50 tabs Artists:  A B C D E F G H I J K L M N O P Q R S T U V W X Y Z 0-9

North Guitar Tabs – Vader

CD, Sheet music, Poster

Do you like North? Share with your friends now
Tabs
Band: Vader
*** ORIGINALLY BY "CARNAL" ***


Fig.1
e--------------------------------------------------|
B--------------------------------------------------|
G--------------------------------------------------|
D--------------------------------------------------|
A-----333322225555000033332222--------333322225555-|
E-2222------------------------33332222-------------|

I gitara:
e------------------|
B------------------|
G------------------|
D------------------|
A------------------|
E-1111111122223333-|

II gitara:
e------------------|
B------------------|
G------------------|
D-3333333344445555-|
A------------------|
E------------------|

Fig.2
I gitara:
e-----------------------------------------------------------------|
B-----------------------------------------------------------------|
G-----------------------------------------------------------------|
D-----------------------------------------------------------------|
A--------4-5-4-5-------------------------4-5-4-5------------------|
E-0-0m0m---------6m6m6m6m-5-6-3-5-0-0m0m---------6m6m6m6m-5-6-3-5-|

I gitara gra powtarza Fig.2 a druga wchodzi:
e-----------------------------------------------------------------|
B-----------------------------------------------------------------|
G-----------------------------------------------------------------|
D-----------------------------------------------------------------|
A-2---------------------------------------------------------------|
E-0---------------------------------------------------------------|

Fig.3
Obie gitary:
e----------------------------------|
B----------------------------------|
G----------------------------------|
D----------------------------------|
A-2--------------------------------|
E-0--------------------------------|
  I cut myself and still hurt
  Grey pain still reminds

e----------------------------------|
B----------------------------------|
G----------------------------------|
D----------------------------------|
A-----------------------55---------|
E-0000000066666666333333--66666655-|
  There is no Kingdom, Power, Glory
  For those who freeze their lives behind

e----------------------------------|
B----------------------------------|
G----------------------------------|
D----------------------------------|
A-----------------------55---------|
E-0000000066666666000000--66666655-|
  Following the wrong god I have been

e----------------------------------|
B----------------------------------|
G----------------------------------|
D----------------------------------|
A-----------------------55---------|
E-0000000066666666333333--66666666-|
  Lusting for knowledge of the cold

Fig.4
e--------------------------------------------------|
B--------------------------------------------------|
G--------------------------------------------------|
D--------------------------------------------------|
A-----333322225555000033332222--------333322225555-|
E-2222------------------------33332222-------------|
                  North is closing down on me
I gitara:
e------------------|  - - - - - -
B------------------|            -
G------------------|            -
D------------------|            -
A------------------|            -
E-1111111122223333-|            -
                                - - - - At high noon and here
II gitara:                      -
e------------------|            -
B------------------|            -
G------------------|            -
D-3333333344445555-|            -
A------------------|            -
E------------------|  - - - - - -

 I gitara:
e-----------------------------------------------------------------|
B-----------------------------------------------------------------|
G-----------------------------------------------------------------|
D-----------------------------------------------------------------|
A--------4-5-4-5-------------------------4-5-4-5------------------|
E-0-0m0m---------6m6m6m6m-5-6-3-5-0-0m0m---------6m6m6m6m-5-6-3-5-|

Fig.5
Obie gitary:
e-------------------------------------------------------------------|
B-------------------------------------------------------------------|
G-------------------------------------------------------------------|
D-------------------------------------------------------------------|
A------5555------------5555------------5555------------5555---------|
E-00000----666655550000----666633330000----666655553333----66665555-|

Fig.6
e----------------------------------|
B----------------------------------|
G----------------------------------|
D----------------------------------|
A-2--------------------------------|
E-0--------------------------------|
  Fever, the nothern lights of soul
  Keeps driving thoughts to the pole

e----------------------------------|
B----------------------------------|
G----------------------------------|
D----------------------------------|
A-----------------------55---------|
E-0000000066666666333333--66666655-|
  The fields of silence from my soul

e----------------------------------|
B----------------------------------|
G----------------------------------|
D----------------------------------|
A-----------------------55---------|
E-0000000066666666000000--66666655-|
  Chilled neon blood in my mouth

e----------------------------------|
B----------------------------------|
G----------------------------------|
D----------------------------------|
A----------------------------------|
E-0000000066666666333333333333333--|
  The black clock makes tours of time
  As I spend my days between the stations

I gitara - solo
II - podkład x4
e----------------------------------|
B----------------------------------|
G----------------------------------|
D----------------------------------|
A-22222222333333331111111100000000-|
E----------------------------------|

Fig.7
e--------------------------------------------------|
B--------------------------------------------------|
G--------------------------------------------------|
D--------------------------------------------------|
A-----333322225555000033332222--------333322225555-|
E-2222------------------------33332222-------------|
                  North is closing down on me
I gitara:
e------------------|  - - - - - -
B------------------|            -
G------------------|            -
D------------------|            -
A------------------|            -
E-1111111122223333-|            -
                                - - - - At high noon and here
II gitara:                      -
e------------------|            -
B------------------|            -
G------------------|            -
D-3333333344445555-|            -
A------------------|            -
E------------------|  - - - - - -

e------------------------------------------------------------------|
B------------------------------------------------------------------|
G------------------------------------------------------------------|
D------------------------------------------------------------------|
A-----333322225555000033332222--------333322225555----33332222-----|
E-2222------------------------33332222------------1111--------3333-|
                   North is of heart and mind     My life frozen at zero

e------|
B------|
G------|
D------|
A-4----|
E-2----|





Comments


Popular Vader tabs & chords
Xepher Bass Tabs
Death In Silence Tabs
Distant Dream Tabs
Flag Of Hate Tabs
Of Moon, Blood, Dream And Me Tabs
Of Moon, Blood, Dream And Me 1 Tabs
Revolt Tabs
Storm Of Stress Tabs
The Code Tabs
Wings Tabs


Song lyrics



↑ Back to top | Tablatures and chords are parodies/interpretations of the original songs. You may use it for private study, scholarship, research or language learning purposes only
© 2014 AZChords.com Contact us | Privacy policy | DMCA | Add/correct tabs | Request tabs | Top 50 tabs