» » »

Foetus God Tabs (ver.1)

Artists:  A B C D E F G H I J K L M N O P Q R S T U V W X Y Z # 

Foetus God Tabs (ver.1)

Vader
Rating:
0/5 (0 votes)

Tabs too difficult? Try these video lessons and learn fast.
                Band: Vader
*** ORIGINALLY BY "CARNAL" ***


I gitara:                 II gitara:
e--------------------|  e-----------------------|
B--------------------|  B--------3-4------------|
G--------------------|  G-4-5--------4--2-4-----|
D-4-5----7-8---------|  D-----6-------------2---|
A-2-3-6--5-6-9--7-9--|  A-----------------------|
E-----4------7--5-7--|  E-----------------------|

Fig.1 obie gitary x2:
e---------------------------------------------------|
B---------------------------------------------------|
G---------------------------------------------------|
D---------------------------------------------------|
A------77-88------------6-----77-88-----------------|
E-00000-----66666-555555-00000-----66666-55555-4-5--|

Fig.2 x4:
e---------------------------------------------------|
B---------------------------------------------------|
G---------------------------------------------------|
D---------------------------------------------------|
A---------------------------------------------------|
E-33333444445555553333334444443333333222222444444---|
  Foeuts god descends in silence
  a bastard deity for us to believe
  blasphemy of gen collage
  in backward sombre involution

  Fig.3
e---------------------------------------------------|
B---------------------------------------------------|
G---------------------------------------------------|
D----------------------------------------9-------7--|
A-2--------------------------------------7-8-7-6-5--|
E-0-0m0m0m0m0m0m0m0m0m0m0m0m0m0m0m0m0m0m---6-5-4----|
  Foetus abortion of the Divine latent rape of a wet, lewd womb

e---------------------------------------------------|
B---------------------------------------------------|
G---------------------------------------------------|
D----------------------------------------9----------|
A-2--------------------------------------7-8-7-5----|
E-0-0m0m0m0m0m0m0m0m0m0m0m0m0m0m0m0m0m0m---6-5-3----|
  man-made myth to blunt the mind the vilest offence for five senses

 Fig.4
e----------------------------------------|
B----------------------------------------|
G----------------------------------------|
D----------------------------------------|
A--------------5-6-5--------------5-6----|
E-444444444444-5-6-5-444444444444-5-6-5--|

e----------------------------------------|
B----------------------------------------|
G----------------------------------------|
D----------------------------------------|
A--------------5-6-5---------------------|
E-444444444444-5-6-5-44444444444444444---|

Fig.5
e-----------------------------------------|
B-----------------------------------------|
G-----------------------------------------|
D-----------------------------------------|
A-----------3333-4444---------------------|
E-222222222-----------333333-55555-111111-|
  Undone miracles never to come invalid rise of slave thought

e-----------------------------------------|
B-----------------------------------------|
G-----------------------------------------|
D-----------------------------------------|
A-----------3333-4444---------------------|
E-222222222-----------333333-555555555555-|
 the only light is dawn can shed is from burnt wisdom and shimmering greed

e-----------------------------------------|
B-----------------------------------------|
G-----------------------------------------|
D-----------------------------------------|
A-----------3333-4444---------------------|
E-222222222-----------333333-55555-111111-|
 Thine is not the Kingdom no trace of strength I see

e-----------------------------------------|
B-----------------------------------------|
G-----------------------------------------|
D-----------------------------------------|
A-----------3333-4444--------7------------|
E-222222222-----------333333-5------------|
  no Mercy to expect a seal of claws upon your lips

Repeat
-Fig.1

Fig.6
e---------------------------------------------------|
B---------------------------------------------------|
G---------------------------------------------------|
D---------------------------------------------------|
A---------------------------------------------------|
E-33333444445555553333334444443333333222222444444---|
  As pure Wit turns into effusions
  we, snakes of Truth, vex and devour
  Gods manifested in twisted images
  astrally hunted in shadows soul

Fig.7
e---------------------------------------------------|
B---------------------------------------------------|
G---------------------------------------------------|
D----------------------------------------9-------7--|
A-2--------------------------------------7-8-7-6-5--|
E-0-0m0m0m0m0m0m0m0m0m0m0m0m0m0m0m0m0m0m---6-5-4----|
  Sweet holy shiftless godsend meat

e---------------------------------------------------|
B---------------------------------------------------|
G---------------------------------------------------|
D----------------------------------------9----------|
A-2--------------------------------------7-8-7-5----|
E-0-0m0m0m0m0m0m0m0m0m0m0m0m0m0m0m0m0m0m---6-5-3----|
  I bet you listen to this psalm of me

 Fig.8 I gitara:
e----------------------------------------|
B----------------------------------------|
G----------------------------------------|
D----------------------------------------|
A--------------5-6-5--------------5-6----|
E-444444444444-5-6-5-444444444444-5-6-5--|

e----------------------------------------|
B----------------------------------------|
G----------------------------------------|
D----------------------------------------|
A--------------5-6-5---------------------|
E-444444444444-5-6-5-4444444444444-5-4-5-|
                     the torns become the real crown!

 Fig.9 (pod solo) I gitara:
e------------------------------------------------------------|
B------------------------------------------------------------|
G------------------------------------------------------------|
D------------------------------------------------------------|
A------------------------------------------------------------|
E-222222222222-5--4-5-222222222222-5--4-5-22222222222-5--4-5-|

e------------------------------|
B------------------------------|
G------------------------------|
D------------------------------|
A------------------------------|
E-222222222222-33333333-6--5-6-|

e------------------------------------------------------------|
B------------------------------------------------------------|
G------------------------------------------------------------|
D------------------------------------------------------------|
A------------------------------------------------------------|
E-222222222222-5--4-5-222222222222-5--4-5-22222222222-5--4-5-|

e------------------------------|
B------------------------------|
G------------------------------|
D------------------------------|
A------------------------------|
E-222222222222-333333333333333-|

 Fig.10 obie gitary:
e-----------------------------------------------------------|
B-----------------------------------------------------------|
G-----------------------------------------------------------|
D-----------------------------------------------------------|
A---------5555555-6666666-4444444-7777777-------------------|
E-44444444--------------------------------55555555-33333333-|

e-----------------------------------------------------------|
B-----------------------------------------------------------|
G-----------------------------------------------------------|
D-----------------------------------------------------------|
A---------5555555-6666666-4444444-7777777-------------------|
E-44444444--------------------------------55555555-77777777-|

e-----------------------------------------------------------|
B-----------------------------------------------------------|
G-----------------------------------------------------------|
D-----------------------------------------------------------|
A---------5555555-6666666-4444444-7777777-------------------|
E-44444444--------------------------------55555555-33333333-|

e-----------------------------------------------------------|
B-----------------------------------------------------------|
G-----------------------------------------------------------|
D-----------------------------------------------------------|
A---------5555555-6666666-4444444-7777777----------6-6------|
E-44444444--------------------------------55555555-4-4------|

 Fig.11:
e-----------------------------------------|
B-----------------------------------------|
G-----------------------------------------|
D-----------------------------------------|
A-----------3333-4444---------------------|
E-222222222-----------333333-55555-111111-|
 Sweet holy shiftless godsend meat I bet you listen to this psalm of me

e-----------------------------------------|
B-----------------------------------------|
G-----------------------------------------|
D-----------------------------------------|
A-----------3333-4444---------------------|
E-222222222-----------333333-555555555555-|
  little by little, one by one the torns become the real crown

e-----------------------------------------|
B-----------------------------------------|
G-----------------------------------------|
D-----------------------------------------|
A-----------3333-4444---------------------|
E-222222222-----------333333-55555-111111-|
 Thine is not the Kingdom no trace of strength I see

e-----------------------------------------|
B-----------------------------------------|
G-----------------------------------------|
D-----------------------------------------|
A-----------3333-4444--------7------------|
E-222222222-----------333333-5------------|
  no Mercy to expect a seal of claws upon your lips

Fig.12:
e----------------------------------------|
B----------------------------------------|
G----------------------------------------|
D----------------------------------------|
A--------------5-6-5--------------5-6----|
E-444444444444-5-6-5-444444444444-5-6-5--|

e----------------------------------------|
B----------------------------------------|
G----------------------------------------|
D----------------------------------4-----|
A--------------5-6-5------7-7------2-5---|
E-444444444444-5-6-5-4444-5-5-4444---3---|
                          bastard deity
e----------------------------------------|
B----------------------------------------|
G----------------------------------------|
D----------------------------------------|
A--------------5-6-5--------------5-6----|
E-444444444444-5-6-5-444444444444-5-6-5--|

e----------------------------------------|
B----------------------------------------|
G----------------------------------------|
D----------------------------------------|
A--------------5-6-5---------------------|
E-444444444444-5-6-5-444444444444-33333--|

:
e------------------|
B------------------|
G------------------|
D-5-6----8-9-10----|
A-3-4-7--6-7-8-----|
E-----5------------|
         (let ring)
            
Tabs too difficult? Try these video lessons and learn fast.


comments powered by Disqus
↑ Back to top | Tablatures and chords are parodies/interpretations of the original songs. You may use it for private study, scholarship, research or language learning purposes only