» » »

Vader, Decapitated Saints Tabs (ver.1)

Artists:  A B C D E F G H I J K L M N O P Q R S T U V W X Y Z # 

Decapitated Saints Tabs (ver.1)

Vader Tabs
 Rating:
4/5 (4 votes)
Decapitated Saints lessons Tabs too difficult? Try these video lessons and learn fast
1
                =================================================================================================


Tuning: Standard

Notation Key
v: vibrato
t: tremolo bar
^: bend
.: palm mute
~: trill
p: pull-off
h: hammer-on
x: ghost note
/: slide up
\: slide down

=================================================================================================

Riff 1 x1
e|-----------------------------|---------------------------------|
B|-----------------------------|---------------------------------|
G|-----------------------------|---------------------------------|
D|--------------------------4--|---------------------------------|
A|----2-------------2-----3-2--|----2-------------2-----------2--|
E|--3---000-1-000-3---000-1----|--3---000-1-000-3---000-111-3----|

e|-----------------------------|-----------------------------|
B|-----------------------------|-----------------------------|
G|-----------------------------|-----------------------------|
D|--------------------------4--|---------------5-------------|
A|----2-------------2-----3-2--|----2-----3----3----2p0------|
E|--3---000-1-000-3---000-1----|--3---000-1-------------3p1--|

e|-----------------------------|---------------------------------|
B|-----------------------------|---------------------------------|
G|-----------------------------|---------------------------------|
D|--------------------------4--|---------------------------------|
A|----2-------------2-----3-2--|----2-------------2-----------2--|
E|--3---000-1-000-3---000-1----|--3---000-1-000-3---000-111-3----|

e|-----------------------------|-----------------------------|
B|-----------------------------|-----------------------------|
G|-----------------------------|-----------------------------|
D|--------------------------4--|----------5-----4-----3------|
A|----2-------------2-----3-2--|----2-----3-----2-----1------|
E|--3---000-1-000-3---000-1----|--3---000---000---000---000--|

Fig. 1 x2
e|---------------------------|
B|---------------------------|
G|---------------------------|
D|--------5-----4-----3------|
A|--------3-----2-----1------|
E|--31000---000---000---000--|

Fig. 1B x1
e|---------------------------|
B|---------------------------|
G|---------------------------|
D|--------5-----4-----3------|
A|--------3-----2-----1-5-3--|
E|--31000---000---------3-1--|

Riff 2 x12
e|-------------------------|
B|-------------------------|
G|-------------------------|
D|------------3/4----------|
A|--2---------1/2-----4/5--|
E|--0-000-000-----000-2/3--|

Riff 3 x3
e|-----------------------------------|
B|-----------------------------------|
G|-----------------------------------|
D|-----------------------------------|
A|------------------------------333--|
E|--222-333-222-555-222-333-222------|

Gtr. 2 plays this once (at the end of the first time Gtr. 1 plays Riff 3.  After that, Guitar 2 just plays Riff 3 alongside Guitar 1 :)
e|-----------------------------------|
B|-----------------------------------|
G|-----------------------------------|
D|------------------------------5----|
A|------------------4---5---4---3----|
E|------------------2---3---2--------|


Riff 4 x4
e|---------------------------------|
B|---------------------------------|
G|---------------------------------|
D|--------------4-3----------------|
A|--------------2-1-------------3--|
E|--000-000-000-----000-000-310-1--|

Riff 5 x4
e|-------------------|
B|-------------------|
G|-------------------|
D|-------------------|
A|----------------3--|
E|--222-320-222-5----|

Repeat Riff 2 x2

Fill 1 x1
e|-----------------------------------|
B|-----------------------------------|
G|-----------------------------------|
D|-----------------------------------|
A|--2-2-2-2-2-2-2-2-2-2-2-2-2-2-2-2--|
E|--0-0-0-0-0-0-0-0-0-0-0-0-0-0-0-0--|

Repeat Riff 4 x4
Repeat Riff 5 x4

Fill 2 x1
e|-------|
B|-------|
G|----3--|
D|--2-3--|
A|--2-1--|
E|--0----|

Riff 6 x2
e|------------|------------|------------|-------------|
B|------------|------------|------------|-------------|
G|------------|------------|------------|-------------|
D|------------|------------|------------|----------3--|
A|------------|------------|------------|--------5-1--|
E|--00000302--|--00000301--|--00000302--|--00000-3----|

e|------------|------------|------------|-------------|
B|------------|------------|------------|-------------|
G|------------|------------|------------|-------------|
D|------------|------------|------------|--2~3--------|
A|------------|------------|------------|-------------|
E|--00000302--|--00000305--|--00000302--|------3-2-1--|

Here are the chords that are played under Riff 6- they are played in the same order 2 times.
e|-----|-----|-----|-----|
B|-----|-----|-----|-----|
G|-----|-----|--3--|-----|
D|--2--|--2--|--3--|--4--|
A|--2--|--2--|--1--|--4--|
E|--0--|--0--|-----|--2--|

Riff 7 x2
e|---------------------------------|---------------------------------|
B|---------------------------------|---------------------------------|
G|---------------------------------|---------------------------------|
D|--------------2~3-----------8----|--------------2~3---------5---7--|
A|----------------------------6-8--|--------------------------3---5--|
E|--000-000-000-----000-000-0---6--|--000-000-000-----000-000--------|

Riff 8 x2
e|-----------------------------------|-----------------------------------|
B|-----------------------------------|-----------------------------------|
G|-----------------------------------|-----------------------------------|
D|------------------------------4-5--|------------------------------4-7--|
A|--222-322-522-322-222-322-522-2-3--|--222-322-522-322-222-322-522-2-5--|
E|-----------------------------------|-----------------------------------|

Repeat Riff 2 x4

Fill 3 x1
e|---------|
B|---------|
G|---------|
D|--5-4-3--|
A|--5-4-3--|
E|--3-2-1--|

Repeat Riff 4 x2
Repeat Riff 3 x2

Riff 9 x6
e|-------------------|
B|-------------------|
G|-------------------|
D|-------------------|
A|--111111h3---------|
E|-----------000000--|

Riff 2 x4

End x1
e|-----|
B|-----|
G|-----|
D|--2--|
A|--2--|
E|--0--|
            
Submit corrections

comments powered by Disqus
↑ Back to top | Vader Tabs for Decapitated Saints. Lyrics for acoustic guitar and electric guitar. 1 Tablatures and chords are parodies/interpretations of the original songs. You may use it for private study, scholarship, research or language learning purposes only