>
 >
Death In Silence

Death In Silence Guitar Tabs

Vader - Death In Silence chords, tabs, tablatures, lyrics

Guitar lessons | Add/correct | Request | Top 50 tabs Artists:  A B C D E F G H I J K L M N O P Q R S T U V W X Y Z 0-9

Death In Silence Guitar Tabs – Vader

CD, Sheet music, Poster

Do you like Death In Silence? Share with your friends now
Tabs
Death in Silence
By Vader


Drop B

(0:00 - 0:07)
|---------------------------------------------------------|
|---------------------------------------------------------|
|---------------------------------------------------------|
|---------------------------------------------------------|
|--4-5-4-2-1---2-4-5--7-5-2---4-5-4--------------2-5-4-2--|
|4--------------------------4-------9-8---5--4---2-5-4-2--|
trem..........................................


(0:08 - 0:15)
|-------------------------------------------------------------------|
|-------------------------------------------------------------------|
|-------------------------------------------------------------------|
|-------------------------------------------------------------------|
|--4-5-4-2-1---2-4-5--7-5-2---4-5-4-------5-7-8----5-7-8------------|
|4--------------------------4-------9-8---5-7-888885-7-88888--------|
trem......................................     ....     ....


(0:16 - 0:24)
|------------------------------------------------------|
|------------------------------------------------------|
|------------------------------------------------------|
|------------------------------------------------------|
|--4-5-4-2-1---2-4-5--7-5-2---4-5-4--------------------|
|4--------------------------4-------9-8---5-4-2-4-5-2--|
trem..................................................


(0:25 - 0:31)
|--------------------------------------------------------|
|--------------------------------------------------------|
|--------------------------------------------------------|
|--------------------------------------------------------|
|--4-5-4-2-1---2-4-5--7-5-2---4-5-4----------------------|
|4--------------------------4-------9-8---5---2---4---5--|
trem....................................................


(0:31 - 0:37)
|---------------|
|---------------|
|---------------|
|---------------|
|------5-4-2-4--|
|4444445-4-2-4--|

|---------------|
|---------------|
|---------------|
|---------------|
|------5-4-2-5--|
|4444445-4-2-5--|

|-----------------|
|-----------------|
|-----------------|
|-----------------|
|------5-4-2-5-4--|
|4444445-4-2-5-4--|

(0:38 - 0:40)
|-------------|
|-------------|
|-------------|
|-------------|
|-------------|
|5---7-8-7-5--|
trem..........


(0:40 - 0:51)
|------------------|
|------------------|
|------------------|
|------------------|
|------------------|
|4-----5-4--2---5--|
trem..............


(0:52 - 0:55)
|--------------|
|--------------|
|--------------|
|2----7-8-7-5--|
|2-------------|
|2-------------|
     t........


(0:56 - 1:04)
|------------------------------------------------------|
|------------------------------------------------------|
|------------------------------------------------------|
|------------------------------------------------------|
|--4-5-4-2-1---2-4-5--7-5-2---4-5-4--------------------|
|4--------------------------4-------9-8---5-4-2-4-5-2--|
trem..................................................


(1:05 - 1:12)
|--------------------------------------------------------|
|--------------------------------------------------------|
|--------------------------------------------------------|
|--------------------------------------------------------|
|--4-5-4-2-1---2-4-5--7-5-2---4-5-4----------------------|
|4--------------------------4-------9-8---5---2---4---5--|
trem....................................................


(1:12 - 1:18)
|---------------|
|---------------|
|---------------|
|---------------|
|------5-4-2-4--|
|4444445-4-2-4--|

|---------------|
|---------------|
|---------------|
|---------------|
|------5-4-2-5--|
|4444445-4-2-5--|

|-----------------|
|-----------------|
|-----------------|
|-----------------|
|------5-4-2-5-4--|
|4444445-4-2-5-4--|


(1:18 - 1:20)
|--------------|
|--------------|
|--------------|
|5-------------|
|5-------------|
|5----7-8-7-5--|
     t.......


(1:20 - 1:34)
|------------------|
|------------------|
|------------------|
|------------------|
|------------------|
|4-----5-4--2---5--|
trem..............


(1:35 - 1:36)
|-----------|
|-----------|
|-----------|
|5----------|
|5----7--8--|
|5----------|
     t....


(1:37 - 1:44)
|------------------------------------------------------|
|------------------------------------------------------|
|------------------------------------------------------|
|------------------------------------------------------|
|--4-5-4-2-1---2-4-5--7-5-2---4-5-4--------------------|
|4--------------------------4-------9-8---5-4-2-4-5-2--|
trem..................................................


(1:45 - 1:53)
|--------------------------------------------------------|
|--------------------------------------------------------|
|--------------------------------------------------------|
|--------------------------------------------------------|
|--4-5-4-2-1---2-4-5--7-5-2---4-5-4----------------------|
|4--------------------------4-------9-8---5---2---4---5--|
trem....................................................


(1:53 - 1:57)
|------------------------------------------------------|
|------------------------------------------------------|
|------------------------------------------------------|
|------------------------------------------------------|
|------------------------------------------------------|
|44--444--444--4-5-2-4-5--44--444--4-5-2-4-5-7-8-7-10--|


(1:57 - 2:01)
|------------------------------------------|
|------------------------------------------|
|------------------------------------------|
|------------------------------------------|
|--------------------------------7-9-10-7--|
|44--444-444--4-5-2-4-5--44-444------------|
                                t.........


(2:01 - 2:05)
|------------------------------------------------------|
|------------------------------------------------------|
|------------------------------------------------------|
|------------------------------------------------------|
|------------------------------------------------------|
|44--444--444--4-5-2-4-5--44--444--4-5-2-4-5-7-8-7-10--|


(2:05 - 2:11)                               DEATH.
|---------------------------------------------------|
|---------------------------------------------------|
|---------------------------------------------------|
|---------------------------------------------------|
|-------------------------4-5--5/8--5/8--5-4-2-5-4--|
|44--444--444--4-5-2-4-5--4-5--5/8--5/8--5-4-2-5-4--|

END OF SONG



Keep if Metal





Comments


Popular Vader tabs & chords
Xepher Bass Tabs
Cold Demons 1 Tabs
Creatures Of Light And Darkness Tabs
Distant Dream Tabs
Litany Tabs
Outbreak Of Evil Tabs
Revolt Tabs
Storm Of Stress Tabs
The Code Tabs
Wings 1 Tabs


Song lyrics



↑ Back to top | Tablatures and chords are parodies/interpretations of the original songs. You may use it for private study, scholarship, research or language learning purposes only
© 2014 AZChords.com Contact us | Privacy policy | DMCA | Add/correct tabs | Request tabs | Top 50 tabs