>
 >
Dark Age

Dark Age Guitar Tabs

Vader - Dark Age chords, tabs, tablatures, lyrics

Guitar lessons | Add/correct | Request | Top 50 tabs Artists:  A B C D E F G H I J K L M N O P Q R S T U V W X Y Z 0-9

Dark Age Guitar Tabs – Vader

CD, Sheet music, Poster

Do you like Dark Age? Share with your friends now
Tabs
Band: Vader
*** ORIGINALLY BY "CARNAL"


(pre)
e-----------------------------------------|
B-----------------------------------------|
G-----------------------------------------|
D-------------------------------------6/7-|
A--------6----------1-2------546-7777-4/5-|
E--444444-7-00003333---444444---7---------|

e-----------------------------------------|
B-----------------------------------------|
G-----------------------------------------|
D---------------------------------99-7/6--|
A--------6----------1-2------546--77-5/4--|
E--444444-7-00003333---444444-------------|

e-----------------------------------------|
B-----------------------------------------|
G-----------------------------------------|
D-------------------------------------6/7-|
A--------6----------1-2------546-7777-4/5-|
E--444444-7-00003333---444444---7---------|

e-----------------------------------------|
B-----------------------------------------|
G-----------------------------------------|
D----------------------------7/8----------|
A--------6----------1-2------5/6---9m8m7m-|
E--444444-7-00003333---444444------7m6m5m-|
Fig.1
I gitara:
e--------------------------------------------------|--------------------------------------------|
B--------------------------------------------------|--------------------------------------------|
G--------------------------------------------------|--------------------------------------------|
D-------------------7/6/8--------------------------|-------------------7/6/8--------------------|
A-------------------5/4/6-222222------------444444-|-------------------5/4/6-222222-------------|
E-555555333333444444------------333333444444-------|-555555333333444444------------333333444444-|
II gitara:
e--------------------------------------------------|--------------------------------------------|
B--------------------------------------------------|--------------------------------------------|
G--------------------------------------------------|--------------------------------------------|
D-------------------7/6/8--------------------------|-------------------7/6/8--------------------|
A-------------------5/4/6--------------------9/8/7-|-------------------5/4/6--------------------|
E--------------------------------------------7/6/5-|--------------------------------------------|
Obie gitary:
e-----------------------------------------------------|
B-----------------------------------------------------|
G-----------------------------------------------------|
D-5/4-------------------------------------------------|
A-3/2------------------546^-222222-------------444444-|
E----555555333333444444------------333333444444-------|

e-----------------------------------------------------|
B-----------------------------------------------------|
G-----------------------------------------------------|
D-------------------------------------------5/4-------|
A-------------------546^-222222-------------3/2-------|
E-555555333333444444------------333333444444----------|

e-----------------------------------------------------|
B-----------------------------------------------------|
G-----------------------------------------------------|
D-----------------------------------------------------|
A-------------------546^-222222-------------444444----|
E-555555333333444444------------333333444444----------|

e---------------------------|
B---------------------------|
G---------------------------|
D-------------------7-6-4-6-|
A-------------------5-4-2-4-|
E-555555333333444444--------|
Fig.2
I gitara:
e-------------------------------------------------------------------|
B-------------------------------------------------------------------|
G-------------------------------------------------------------------|
D-2-------4---------------------------------------------------------|
A-0-000000233333322222--------------000223322----4-4--------3m2m0m2-|
E---------------------3322222222233----------33332-2-30m2m3m--------|
II gitara:
e-------------------------------------------------------------------|
B-------------------------------------------------------------------|
G-------------------------------------------------------------------|
D-2---------------------------------2--4-5--------------------------|
A-0-------------------5m2m3-5m2m3-5-0--2-3-2-5m2m4-4--------3m2m0m2-|
E---------------------3m0m2-3m0m2-3----------3m0m2-2-30m2m3m--------|
Obie gitary:
e-------------------------------|
B-------------------------------|
G-------------------------------|
D-------------------------------|
A-000000222333322---------------|
E----------------33222222111000-|
I gitara:
e--------------------------------------------------------|
B--------------------------------------------------------|
G-------444333-------------------------------------------|
D-------------555222444444-222222444555444---------------|
A-000000----------------------------------55444444333222-|
E--------------------------------------------------------|
II gitara:
e--------------------------------------------------------|
B--------------------------------------------------------|
G--------------------------------------------------------|
D--------------------------------------------------------|
A-000000222333222-----------000000222333222--------------|
E----------------3322222233---------------33222222111000-|
Obie gitary:
e------------------|
B------------------|
G------------------|
D-2--4-4--4-4--4/3-|
A-0--2-2--2-2--2/1-|
E------------------|
Fig.3
e--------------------------------------------------------|
B--------------------------------------------------------|
G--------------------------------------------------------|
D--------------------------------------------------------|
A-000000222333222-----------000000222333222-----4^---43--|
E----------------3322222233----------------33222--222--2-|
  Strange visions dreams my mind
  When I am walking through the night
  Each time I see the visage of the moon
e--------------------------------------------------------|
B--------------------------------------------------------|
G--------------------------------------------------------|
D--------------------------------------------------------|
A-000000222333222-----------000000222333222--------------|
E----------------3322222233----------------332221110-----|
  Dead cities amongst the sands
  Under the black abyss of seas
  Does moadness seize my soul?
I gitara:
e--------------------------|
B--------------------------|
G--------------------------|
D--------------------------|
A----------222333000111----|
E-000000333------------222-|
Obie gitary:
e--------------------------|
B--------------------------|
G--------------------------|
D--------------------------|
A----------222333000111----|
E-000000333----------------|

e--------------------------|--------------------------|
B--------------------------|--------------------------|
G--------------------------|--------------------------|
D--------------------------|--------------------------|
A----------222333000111----|----------222333000111----|
E-000000333------------222-|-000000333------------222-|
  The elder race             Eternal watchers
  From beyond the stars      Of sphere of no return
e--------------------------|--------------------------|
B--------------------------|--------------------------|
G--------------------------|--------------------------|
D--------------------------|--------------------------|
A----------222333000111----|----------222333000111----|
E-000000333------------222-|-000000333------------222-|
  Seven steals               Abominations
  Of seven mighty gates      That come true within' me
Fig.4
e--------------------------------------------|---------------------------------------------|
B--------------------------------------------|---------------------------------------------|
G--------------------------------------------|---------------------------------------------|
D-2-4----------------------------------------|-2-4-----------------------------------------|
A-0-2-333333222--------------------------2-3-|-0-2-333333222---------------------------2-3-|
E--------------3m0m22222222222m3m0m2m3m0m----|--------------3m0m222222222222m3m0m2m4m0m----|
 Here's the key by which I can summon          Unnatural desire of the knowledge of the gods
 the forgotten world
e---------------------------------------------------|
B---------------------------------------------------|
G---------------------------------------------------|
D-2-4-----------------------------------------2-4-4-|
A-0-2-333333222--------------------------2-3--0-2-2-|
E--------------3m0m22222222222m3m0m2m3m0m-----------|
  Lust eating up the brain wherein there isn't fear
  yet
(solo1)
I gitara (podkład) x2:
e-----------------------------------------------------------|
B-----------------------------------------------------------|
G-----------------------------------------------------------|
D-3--3-3-3-3-3-3-------------------------------------5--5-5-|
A-1--1-1-1-1-1-1-5--5-5-2--2-2-4--4-4-4-4-4-4-5--5-5-3--3-3-|
E----------------3--3-3-0--0-0-2--2-2-2-2-2-2-3--3-3--------|

e-----------------------------------------------------------|
B-----------------------------------------------------------|
G-----------------------------------------------------------|
D-3--3-3-3-3-3-3------------------------------5------4------|
A-1--1-1-1-1-1-1-5--5-5-2--2-2-4--4-4-4-4-4-4-3------2------|
E----------------3--3-3-0--0-0-2--2-2-2-2-2-2---------------|
Fig.5
Obie gitary:
e--------------------------------------------------------|
B--------------------------------------------------------|
G--------------------------------------------------------|
D--------------------------------------------------------|
A-000000222333222-----------000000222333222-----4^---43--|
E----------------3322222233----------------33222--222--2-|
  I break the sleep of spectral friends
  Tear open the unseen, ghostly screen.
e--------------------------------------------------------|
B--------------------------------------------------------|
G--------------------------------------------------------|
D----------------------------------3---------------------|
A-000000222333222-----------000000-1--0m-2m--------------|
E----------------3322222233-----------------0------------|
  I make free for all ways for demons now
  And ruin the tomb of sacred souls
Fig.6
I gitara:
e-----------------|
B-----------------|
G-----------------|
D-----------------|
A----------2m3m-5-|
E-222333555-------|
Obie gitary:
e--------------------------------------------------------------------------|
B--------------------------------------------------------------------------|
G--------------------------------------------------------------------------|
D--------------------------------------------------------------------------|
A----------2m3m-5---------2m3m-5---------2m3m-5---------2m3m-5-------7-2-7-|
E-222333555------222333555------222333555------222333555------222333-5-0-5-|

e-------------------------------------------------------|
B-------------------------------------------------------|
G-------------------------------------------------------|
D-------------------7-7/8/6/7-----------------------5-4-|
A-------------------5-5/6/4/5-------------------2-3-3-2-|
E-222222333333000000----------2222223333330000000-1-----|
  An epileptic trance is entering my body
  to break all control rule of this mind
e-------------------------------------------------------|
B-------------------------------------------------------|
G-------------------------------------------------------|
D-------------------7-7/8/6/7-------------2-4-0m1m2m----|
A-------------------5-5/6/4/5-------------0-2-----------|
E-222222333333000000----------222222333333--------------|
  A boiling brain addicted to madness
  In which every night is like a horrror dream
(solo2)
I gitara (podkład):
e--------------------------------------------------------------------|
B--------------------------------------------------------------------|
G--------------------------------------------------------------------|
D-------4--3--0m1m2m------4--2--0m1m2m------4--3--0m1m2m------4--3-3-|
A-------2--1--------------2--0--------------2--1--------------2--1-1-|
E-000000------------000000------------000000------------000000-------|
Fig.7
Obie gitary:
e-------------------------------------------------------|
B-------------------------------------------------------|
G-------------------------------------------------------|
D-------------------------------------------------------|
A---------------888555---5/6---------------888555---5/6-|
E-0-0m0m0m0m0m0m------6663/4-0-0m0m0m0m0m0m------6663/4-|
  Shudder in the dark breath
  Old evil blowing icily from the dark
e-------------------------------------------------------|
B-------------------------------------------------------|
G-------------------------------------------------------|
D------------------------------------------------777666-|
A---------------888555---5/6---------------888555-------|
E-0-0m0m0m0m0m0m------6663/4-0-0m0m0m0m0m0m-------------|
  Wrapped in a shroud of mistery
  Faint voices from beyond the spaces
e-------------------------------------------------------|
B-------------------------------------------------------|
G-------------------------------------------------------|
D-------------------------------------------------------|
A---------------888555---5/6---------------888555---5/6-|
E-0-0m0m0m0m0m0m------6663/4-0-0m0m0m0m0m0m------6663/4-|
  Sample a dark universe
  domain of the strange races
e-------------------------------------------------------|
B-------------------------------------------------------|
G-------------------------------------------------------|
D-------------------------------------------------------|
A---------------888555---5/6---------------888555---5/6-|
E-0-0m0m0m0m0m0m------6663/4-0-0m0m0m0m0m0m------6663/4-|
  With the angry gods
  Best forgotten and left undiscovered
(solo3)
I gitara (podkład):
e--------------------------------|
B--------------------------------|
G--------------------------------|
D----------------------------4/5-|
A-2----------6/5-5/3---------2/3-|
E-0-0m0m0m0m-4/3-3/1-1m1m1m1m----|  x4
Fig.8
e------------------------------------------------------------------------|
B------------------------------------------------------------------------|
G------------------------------------------------------------------------|
D----------------6/7---------------7---------------6/7---------------4/5-|
A-------6--------4/5------6--------5------6--------4/5------6--------2/3-|
E-444444-7-777555---444444-7-777555-444444-7-777555---444444-7-777555----|
I gitara:
e--------------------------|
B--------------------------|
G--------------------------|
D--------------------------|
A----------222333000111----|
E-000000333------------222-|
Obie gitary:
e--------------------------|
B--------------------------|
G--------------------------|
D--------------------------|
A----------222333000111----|
E-000000333----------------|

e--------------------------|--------------------------|
B--------------------------|--------------------------|
G--------------------------|--------------------------|
D--------------------------|--------------------------|
A----------222333000111----|----------222333000111----|
E-000000333------------222-|-000000333------------222-|
  You know of course         Blessing the blackness in glory
 I'll be back from the dead
e--------------------------|--------------------------|
B--------------------------|--------------------------|
G--------------------------|--------------------------|
D--------------------------|--------------------------|
A----------222333000111----|----------222333000111----|
E-000000333------------222-|-000000333------------222-|
  Of billions of years       In rituals of the ancient race!
  On collapsed stars
(solo4)
I gitara (podkład):
e----------------------------------------------|
B----------------------------------------------|
G----------------------------------------------|
D----------------------------------------------|
A----6/7----222---111------6/7----222---111111-|
E-0004/54444---333---2220004/54444---333-------| x2
(epilog)
e------------------------|
B------------------------|
G------------------------|
D----------5/4/3-4/3/2---|
A-2----6---3/2/1-2/1/0-2-|
E-0----4---------------0-|
(end)





Comments


Popular Vader tabs & chords
Silent Empire Bass Tabs
Carnal Tabs
Choices Tabs
Cold Demons Tabs
Dark Transmission Tabs
Decapitated Saints Tabs
Flag Of Hate Tabs
Freezing Moon Tabs
Outbreak Of Evil 1 Tabs
Shadowfear Tabs


Song lyrics



↑ Back to top | Tablatures and chords are parodies/interpretations of the original songs. You may use it for private study, scholarship, research or language learning purposes only
© 2014 AZChords.com Contact us | Privacy policy | DMCA | Add/correct tabs | Request tabs | Top 50 tabs