>
 >
Crucified Ones

Crucified Ones Guitar Tabs

Vader - Crucified Ones chords, tabs, tablatures, lyrics

Guitar lessons | Add/correct | Request | Top 50 tabs Artists:  A B C D E F G H I J K L M N O P Q R S T U V W X Y Z 0-9

Crucified Ones Guitar Tabs – Vader

CD, Sheet music, Poster

Do you like Crucified Ones? Share with your friends now
Tabs
Band: Vader
*** ORIGINALLY BY "CARNAL" ***


Fig.1 
I gitara: 
e-------------------| 
B-------------------| 
G-------------------| 
D-------------------| 
A--2233225544551100-| 
E-------------------| 

II gitara: 
e-------------------| 
B-------------------| 
G-------------------| 
D--4-5-----6-7-3-2--| 
A--2-3-----4-5-1-0--| 
E-------------------| 

Obie gitary: 
e------------------------------------------------------------------------| 
B------------------------------------------------------------------------| 
G------------------------------------------------------------------------| 
D------------------------------------------------------------------------| 
A--2233225544551100-2233225544551100-2233225544551100-223322554455110m1m-| 
E------------------------------------------------------------------------| 

I gitara: 
e-------------------| 
B-------------------| 
G-------------------| 
D-------------------| 
A--2233225544551100-| 
E-------------------| 

II gitara: 
e-------------------| 
B-------------------| 
G-------------------| 
D------4-7-6-7-3-2--| 
A------2-5-4-5-1-0--| 
E-------------------| 

Obie gitary: 
e-----------------------------------------------------------------------------| 
B-----------------------------------------------------------------------------| 
G-----------------------------------------------------------------------------| 
D--------------------------------------------------------------------3-2------| 
A--2233225544551100-2233225544551100-223322554455110m1m-223322554455-1-0--7-5-| 
E-------------------------------------------------------------------------5-3-| 

Fig.2a 
e----------------------------------------------------------| 
B----------------------------------------------------------| 
G----------------------------------------------------------| 
D----------------------------------------------------------| 
A-------------4-0-1-3-1-0----------4-0-1-3-1-0-------------| 
E--(00000000)m------------1-(0000)m------------3-0-1-3-1-0-| 

e----------------------------------------------------------| 
B----------------------------------------------------------| 
G----------------------------------------------------------| 
D----------------------------------------------------------| 
A-------------4-0-1-3-1-0----------4-0-1-3-1-0---3---------| 
E--(00000000)m------------1-(0000)m------------3-1---------| 

e----------------------------------------------------------| 
B----------------------------------------------------------| 
G----------------------------------------------------------| 
D----------------------------------------------------------| 
A-------------4-0-1-3-1-0----------4-0-1-3-1-0-------------| 
E--(00000000)m------------1-(0000)m------------3-0-1-3-1-0-| 

e-------------------------------------------------| 
B-------------------------------------------------| 
G-------------------------------------------------| 
D-----------------------------------3-3-----------| 
A-------------4-0-1-3-1-0-----------1-1-5-5-------| 
E--(00000000)m------------1-(0000)m-----3-3-------| 

Fig.4a 
e---------------------------------------------------------------------------------| 
B---------------------------------------------------------------------------------| 
G---------------------------------------------------------------------------------| 
D-----------------------------------------------------------------------------4-5-| 
A-------------------------------(2222221122)m-3^------------------------------2-3-| 
E--(00000000333333332211111111)m----------------(00000000333333332211111111)m-2-3-| 
   Mortal crosses standing in the row,          Damned souls grouping on the dark, 
   Seem to reach up to the burning sky          Going round the stretched arms, 
    

e---------------------------------------------------------------------------------| 
B---------------------------------------------------------------------------------| 
G---------------------------------------------------------------------------------| 
D-----------------------------------------------------------------------------4-5-| 
A-------------------------------(2222221122)m-3^------------------------------2-3-| 
E--(00000000333333332211111111)m----------------(00000000333333332211111111)m-2-3-| 
   Bodies, faces,                               Lifeless eyes staring at the space 
   Unnaturally bended in pain,                  Persecution of the dying has begun. 
    

Fig.5a 
e------------------------------------------------------------| 
B------------------------------------------------------------| 
G------------------------------------------------------------| 
D--6----4/3---------------------6----4/3---------------------| 
A--4--5-2/1---------------------4--5-2/1---------------------| 
E--4--3-----(0000000000000000)m-4--3-----(0000000000000000)m-| 
   Here's the place of the alteration, Where life turns into other form, 
e----------------------------------------| 
B----------------------------------------| 
G----------------------------------------| 
D--6----4/3---------------------6--5-----| 
A--4--5-2/1---------------------4--3-----| 
E--4--3-----(0000000000000000)m-4--3-----| 
   Dark ritual of demons procreation, Hear the cries - of the crucified ones, 

Fig.2b 
e----------------------------------------------------------| 
B----------------------------------------------------------| 
G----------------------------------------------------------| 
D----------------------------------------------------------| 
A-------------4-0-1-3-1-0----------4-0-1-3-1-0-------------| 
E--(00000000)m------------1-(0000)m------------3-0-1-3-1-0-| 

e----------------------------------------------------------| 
B----------------------------------------------------------| 
G----------------------------------------------------------| 
D------------------------------3--5-4----------------------| 
A-------------4-0-1-3-1-0---2--1--3-2--6-5-----------------| 
E--(00000000)m--------------0----------4-3-----------------|    

Fig.4b 
e---------------------------------------------------------------------------------| 
B---------------------------------------------------------------------------------| 
G---------------------------------------------------------------------------------| 
D-----------------------------------------------------------------------------4-3-| 
A-------------------------------(2222221122)m-3^------------------------------2-1-| 
E--(00000000333333332211111111)m----------------(00000000333333332211111111)m-2-1-| 
   Throbing Fleshes in the rhythm of thunder,   Nailed hands greeting angry gods, 
   Blasphemy in light of raving bolts           Coming fourth to feast in blood. 

e---------------------------------------------------------------------------------| 
B---------------------------------------------------------------------------------| 
G---------------------------------------------------------------------------------| 
D-----------------------------------------------------------------------------4-5-| 
A-------------------------------(2222221122)m-3^------------------------------2-3-| 
E--(00000000333333332211111111)m----------------(00000000333333332211111111)m-2-3-| 
   Bodies, faces,                                Purple fluid stream in wood, 
   Unnaturally changed in lust,                  Like tears of dying cross... 
Fig.5b 
e------------------------------------------------------------| 
B------------------------------------------------------------| 
G------------------------------------------------------------| 
D--6----4/3---------------------6----4/3---------------------| 
A--4--5-2/1---------------------4--5-2/1---------------------| 
E--4--3-----(0000000000000000)m-4--3-----(0000000000000000)m-| 
   Here's the place of alteration, Where gods turns into temporal form, 

e-----------------------------------| 
B-----------------------------------| 
G-----------------------------------| 
D--6----4/3---------------------6---| 
A--4--5-2/1---------------------4---| 
E--4--3-----(0000000000000000)m-4---| 
   Dark ritual of demons procreation, Come on! 

e----------| 
B----------| 
G----------| 
D----------| 
A----------| 
E--???????-| 
 Leave your life and join the dead hell 

Fig.6 
e-------------------------------------------------------------------| 
B-------------------------------------------------------------------| 
G-------------------------------------------------------------------| 
D---------------7-8------------------------------7-8----------------| 
A---------------5-6--------333322~32-------------5-6----------------| 
E--3333334443333---44444444----------3333334443333---77777774444444-| 

e--------------------------------------------------------------| 
B--------------------------------------------------------------| 
G--------------------------------------------------------------| 
D---------------7-8------------------------------7-8-------8-7-| 
A---------------5-6--------333322~32-------------5-6-------6-5-| 
E--3333334443333---44444444----------3333334443333--777777-----| 

I gitara: 
e---------| 
B---------| 
G---------| 
D---------| 
A---------| 
E--777777-| 

II gitara: 
e---------| 
B---------| 
G---------| 
D--6--6/7-| 
A--4--4/5-| 
E---------| 

Fig.7 
Obie gitary: 
e--------------------------------------------------------------------------------| 
B--------------------------------------------------------------------------------| 
G--------------------------------------------------------------------------------| 
D--------------------------------------------------------------------------------| 
A------------------2211-----------------------------------2211-------------------| 
E--3333334433222222----333333443322221111-3333334433222222----333333443322221111-| 
   Masters of forgotten arts,             O come to me! 
   Deign to look at your servant,         I beg thee, open wide the gates, 
   Acceptance my greatest sacrifice.      All fiends of fiends, 
   Send revenge on bastard's seed!        From the deep of dark abyss arrive! 
  

Fig.8 
I gitara: 
e-------------------------| 
B-------------------------| 
G-------------------------| 
D-------------------------| 
A---------------------5-3-| 
E--000000000000000000-3-1-| 

II gitara: 
e-------------------------| 
B-------------------------| 
G-------------------------| 
D-----3/4--3-3/4--3/4-----| 
A--2--1/2--1-1/2--1/2-5-3-| 
E--0------------------3-1-| 

Obie gitary: 
e------------------------------------------| 
B------------------------------------------| 
G------------------------------------------| 
D----------3/4------3-3/4----------3/4-----| 
A----------1/2------1-1/2----------1/2-5-3-| 
E-(000000)m---(000)m------(000000)m----3-1-| 

e--------------------------------------------------------------------------------| 
B--------------------------------------------------------------------------------| 
G--------------------------------------------------------------------------------| 
D----------3/4------3-3/4---------3/4--------------------3/4------3-3/4------3/4-| 
A----------1/2------1-1/2---------1/2-------5-3----------1/2------1-1/2------1/2-| 
E-000000000---000000-----000000000---000000-3-1-000000000---000000-----000000----| 
  Rise!!! 

I gitara:  
e----------| 
B----------| 
G----------| 
D----------| 
A----------| 
E-00333111-| 

Fig.9 (solo - podklad) 4x: 
e-------------------------------------| 
B-------------------------------------| 
G-------------------------------------| 
D----------3/4------3-3/4-------------| 
A----------1/2------1-1/2-------------| 
E-000000000---000000-----333333111111-| 

Fig.10 
Obie gitary: 
e------------------------------------| 
B------------------------------------| 
G------------------------------------| 
D------------------------------------| 
A--2233225544551100-2233225544551100-| 
E------------------------------------| 
                    Rise!!! 
e------------------------------------------------------------------------| 
B------------------------------------------------------------------------| 
G------------------------------------------------------------------------| 
D-----------------------------------------------------------------3------| 
A--2233225544551100-2233225544551100-2233225544551100-2233225544551-6----| 
E-------------------------------------------------------------------4----| 
   Pazuzu, the evil one,             Bless the damned, curse the blessed, 
   Lord, who feeds on angels cries!  -crucify them 

Epilog 
e----------------------------------------------------------| 
B----------------------------------------------------------| 
G----------------------------------------------------------| 
D----------------------------------------------------------| 
A-------------4-0-1-3-1-0----------4-0-1-3-1-0-------------| 
E--(00000000)m------------1-(0000)m------------3-0-1-3-1-0-| 

e----------------------------------------------------------| 
B----------------------------------------------------------| 
G----------------------------------------------------------| 
D----------------------------------------------------------| 
A-------------4-0-1-3-1-0----------4-0-1-3-1-0---3---------| 
E--(00000000)m------------1-(0000)m------------3-1---------| 

e----------------------------------------------------------| 
B----------------------------------------------------------| 
G----------------------------------------------------------| 
D----------------------------------------------------------| 
A-------------4-0-1-3-1-0----------4-0-1-3-1-0-------------| 
E--(00000000)m------------1-(0000)m------------3-0-1-3-1-0-| 

e----------------------------------------------------------| 
B----------------------------------------------------------| 
G----------------------------------------------------------| 
D----------------------------------------------------------| 
A-------------4-0-1-3-1-0----------4-0-1-3-1-0-5----3------| 
E--(00000000)m------------1-(0000)m------------3-0m-1------| 
                                               Crucify!





Comments


Popular Vader tabs & chords
Revelation Of Black Moses Bass Tabs
Xepher Bass Tabs
Black To The Blind Tabs
Dark Transmission Tabs
Red Passage Tabs
Reign Forever World 1 Tabs
Revolt Tabs
Sothis Tabs
Whisper Tabs
Wings 2 Tabs


Song lyrics



↑ Back to top | Tablatures and chords are parodies/interpretations of the original songs. You may use it for private study, scholarship, research or language learning purposes only
© 2014 AZChords.com Contact us | Privacy policy | DMCA | Add/correct tabs | Request tabs | Top 50 tabs