» » »

Vader, Anamnesis Tabs (ver.1)

Artists:  A B C D E F G H I J K L M N O P Q R S T U V W X Y Z # 

Anamnesis Tabs (ver.1)

Vader Tabs
Rating:
0/5 (0 votes)
Anamnesis lessons Tabs too difficult? Try these video lessons and learn fast
                Band: Vader
*** ORIGINALLY BY "CARNAL" ***


e------------------------------|-------------------------|
B------------------------------|-------------------------|
G------------------------------|-------------------------|
D------------------------------|-------------------------|
A-2-3----4-5------3-4----5-4-6-|-2-3---4-5---3-4---5-4-6-|
E-----4------6--------5--------|-----4-----6-----5-------|

e------------------------------|
B------------------------------|
G------------------------------|
D------------------------------|
A-2-3---4-5---3-4--------------|
E-----4-----6-----5--7m7m6m7m4-|

I gitara:
e------------------------|------------------------|------------------------|
B------------------------|------------------------|------------------------|
G------------------------|------------------------|------------------------|
D------------------------|------------------------|------------------------|
A------------------------|------------------------|------------------------|
E-(4444444444444444444)m-|-(4444444444444444444)m-|-(4444444444444444444)m-|

II gitara:
e------------------------|------------------------|------------------------|
B------------------------|------------------------|------------------------|
G------------------------|------------------------|------------------------|
D------------------------|------------------------|------------------------|
A------------------------|------------------------|------------------------|
E------------------------|-(4444444444444444444)m-|-(4444444444444444444)m-|

Fig.1 ( obie gitary ) x4:
e----------------------|
B----------------------|
G----------------------|
D----------3333--------|
A-----444------33332~3-|
E-222------------------|
To stem the current is no vain attempt
the Knowledge preserved for us alone
in this world of mud and rust
decipher what is coded by our hands

Fig.2 x2:
e-----------------------------------|
B-----------------------------------|
G-----------------------------------|
D-----------------------------------|
A----------44444444----------444444-|
E-555444333--------555444333--------|
 Defiled our names soiled glory of gods
 dismal new faith spawn of deliverence

Fig.3:
e------------------------------|
B------------------------------|
G------------------------------|
D------------------------------|
A-3-5555555--------55554443322-|
E----------44444444------------|

Fig.1  x4:
e----------------------|
B----------------------|
G----------------------|
D----------3333--------|
A-----444------33332~3-|
E-222------------------|
  Oh wisdom formless and odious
  the sexless parent of disbelief
  restricting rules they can make
  means nothing to Your Being

Fig.2 x2:
e-----------------------------------|
B-----------------------------------|
G-----------------------------------|
D-----------------------------------|
A----------44444444----------444444-|
E-555444333--------555444333--------|
 Defiled our names soiled glory of gods
 dismal new faith spawn of deliverence

e-----|
B-----|
G-----|
D-5---|
A-3---|
E-----|

Fig.4 ( podk³ad pod solo )x4:
e-------------------------------|
B-------------------------------|
G-------------------------------|
D-------------------------------|
A-22220033335m3m-22220033335m3m-|
E-------------------------------|

Fig.5 I gitara:
e----------------------------|
B----------------------------|
G----------------------------|
D----------------------------|
A-------33332~3------33332~3-|
E-222222-------222222--------|

Obie gitary:
e----------------------------|
B----------------------------|
G----------------------------|
D----------------------------|
A-------33332~3------33332~3-|
E-222222-------222222--------|
  Restore what was broken
  no single word is missed
  with fiery tongues speak to us
e--------------|
B--------------|
G--------------|
D--------------|
A-2--5-5--5-3--|
E-0--3-3--3-1--|
  to souls gashed, souls hardened

Fig.6 ( solo2) podk³ad x2:
e-------------------------------------------------------------|
B-------------------------------------------------------------|
G-------------------------------------------------------------|
D-------------------------------------------------------------|
A-00000022333333-00000022333333-00000022333333-00000044333333-|
E-------------------------------------------------------------|

Fig.7 ( obie gitary ):
e----------------------------------------------------------|
B----------------------------------------------------------|
G----------------------------------------------------------|
D----------------------4-5----6-7----5-6---7-6-8-----------|
A-4-5----4-5----4-5----2-3-6--4-5-8--3-4-7-5-4-6-----------|
E-2-3----2-3----2-3--------4------6------5-------7m7m6m7m4-|

Fig.8 I gitara:
e------------------------|
B------------------------|
G------------------------|
D------------------------|
A------------------------|
E-(4444444444444444444)m-|

Fig.1 ( obie gitary ) x4:
e----------------------|
B----------------------|
G----------------------|
D----------3333--------|
A-----444------33332~3-|
E-222------------------|
  Oh wisdom formless and odious
  the sexless parent of disbelief
  restricting rules they can make
  means noting to Your Being
Fig.2 x2:
e-----------------------------------|
B-----------------------------------|
G-----------------------------------|
D-----------------------------------|
A----------44444444----------444444-|
E-555444333--------555444333--------|
 Defiled our names soiled glory of gods
 dismal new faith spawn of deliverence

Fig.9:
e----------------------------------------------------------------|
B----------------------------------------------------------------|
G----------------------------------------------------------------|
D----------------------------------------------------------------|
A-3-5555555--------5555555--------55555555--------55555544444444-|
E----------44444444-------44444444--------44444444---------------|
     This conceit waste   regain we must  on Herme's touch

 x8
e--------------------|
B--------------------|
G--------------------|
D--------------------|
A-7m-8m-5--6m-5m-4---|
E-5m-6m-3--4m-3m-2---|

e------------|
B------------|
G------------|
D------------|
A-7m-8m-5----|
E-5m-6m-3----|

I gitara:
e----------|
B----------|
G----------|
D----------|
A-6m-5m-4m-|
E-4m-3m-2m-|
            

comments powered by Disqus
↑ Back to top | Vader Tabs for Anamnesis. Lyrics for acoustic guitar and electric guitar. Tablatures and chords are parodies/interpretations of the original songs. You may use it for private study, scholarship, research or language learning purposes only