>
 >
Empty 96

Empty 96 Guitar Tabs

Uverworld - Empty 96 chords, tabs, tablatures, lyrics

Guitar lessons | Add/correct | Request | Top 50 tabs Artists:  A B C D E F G H I J K L M N O P Q R S T U V W X Y Z 0-9

Empty 96 Guitar Tabs – Uverworld

CD, Sheet music, Poster

Do you like Empty 96? Share with your friends now
Tabs
-------------------------------------------------------------------------------
-------------------------------------------------------------------------------

Tuning:DADGBe

Intro:
e|-----------------------------------------------------------------------------|
B|-----------------------------------------------------------------------------|
G|-----------------------------------------------------------------------------|
D|4--3--1--3--(Listen to the song for the strumming pattern)-------------------|
A|4--3--1--3-------------------------------------------------------------------|
D|4--3--1--3-------------------------------------------------------------------|
  Pm---------------------------------------------------------------------------|
Verse:
e|-----------------------------------------------------------------------------|
B|-----------------------------------------------------------------------------|
G|-----------------------------------------------------------------------------|
D|X-X-4(X4)-------X-X-3(X4)-------X-X-1(X4)-------X-X-3(X4)--------------------|
A|X-X-4-----------X-X-3-----------X-X-1-----------X-X-3------------------------|
D|X-X-4-----------X-X-3-----------X-X-1-----------X-X-3------------------------|

e|---------------------------------------------------------------------------|
B|---------------------------------------------------------------------------|
G|4-4-4/6--6-8---------3-----------------------------------------------------|
D|4-4-4/6--6-8--6p4----3-8p6-------------------------------------------------|
A|2-2-2/4--4-6-----6p4-1----8p6----------------------------------------------|
D|---------------------------------------------------------------------------|

Pre-Chorus:
e|---------------------------------------------------------------------------|
B|---------------------------------------------------------------------------|
G|4-4-4/6--6--8(continuously)--8(X7)-----------------------------------------|
D|4-4-4/6--6--8----------------8---------------------------------------------|
A|2-2-2/4--4--6----------------6---------------------------------------------|
D|---------------------------------------------------------------------------|

Chorus:
e|---------------------------------------------------------------------------|X4
B|---------------------------------------------------------------------------|
G|---------------8-8-8-8-8-8-8-8-8-8-----------------------------------------|
D|4-4-4-4/6-6-6--8-8-8-8-8-8-8-8-8-8-----------------------------------------|
A|4-4-4-4/6-6-6--6-6-6-6-6-6-6-6-6-6-----------------------------------------|
D|4-4-4-4/6-6-6--------------------------------------------------------------|

Post-Chorus:
e|---------------------------------------------------------------------------|
B|---------------------------------------------------------------------------|
G|---------------------------------------------------------------------------|
D|1---1-2-0-1-1--4-4-4-4-----------------------------------------------------|
A|1---1-2-0-1-1--4-4-4-4-----------------------------------------------------|
D|1---1-2-0-1-1--4-4-4-4-----------------------------------------------------|

2nd Verse
e|-----------------------------------------------------------------------------|
B|-----------------------------------------------------------------------------|
G|----------------------X-X-4(X2)--X-X-6(X4)--X-X-8(X2)------------------------|
D|1-1-0-1-1-1-2-2(X4)---X-X-4------X-X-6------X-X-8----------------------------|
A|1-1-0-1-1-1-2-2-------X-X-2------X-X-4------X-X-6----------------------------|
D|1-1-0-1-1-1-2-2--------------------------------------------------------------|

2nd Pre-Chorus:
e|-----------------------------------------------------------------------------|
B|-----------------------------------------------------------------------------|
G|----------8(continuously)--8(X4)--7(X4)--------------------------------------|
D|X-X-4(X4)-8----------------8------7------------------------------------------|
A|X-X-4-----6----------------6------5------------------------------------------|
D|X-X-4------------------------------------------------------------------------|


Chorus


Bridge:
e|-----------------------------------------------------------------------------|
B|-----------------------------------------------------------------------------|
G|X-X-8(continuously)---X-X-8(X2)--X-X-10(X2)--X-X-11(continuously)------------|
D|X-X-8-----------------X-X-8------X-X-10-----X-X-11---------------------------|
A|X-X-6-----------------X-X-6------X-X-8-------X-X-9---------------------------|
D|-----------------------------------------------------------------------------|

e|-----------------------------------------------------------------------------|X2
B|-----------------------------------------------------------------------------|
G|-----------------------------------------------------------------------------|
D|4--3--1--3--(Listen to the song for the strumming pattern)-------------------|
A|4--3--1--3-------------------------------------------------------------------|
D|4--3--1--3-------------------------------------------------------------------|
  Pm---------------------------------------------------------------------------|


Chorus


2nd Post-Chorus:
e|------------------------------------------------------------------------------|X2
B|------------------------------------------------------------------------------|
G|11(continuously)-10(X2)-11(X2)-10(X2)-11(X2)----------------------------------|
D|11---------------10-----11-----10-----11--------------------------------------|
A|9----------------8------9------8------9---------------------------------------|
D|------------------------------------------------------------------------------|

e|-----------------------------------------------------------------------------|
B|-----------------------------------------------------------------------------|
G|---------------8-8-8-8-8-8-8-8-8-8-------------------------------------------|
D|4-4-4-4/6-6-6--8-8-8-8-8-8-8-8-8-8---4-4-4-4/6-6-6---------------------------|
A|4-4-4-4/6-6-6--6-6-6-6-6-6-6-6-6-6---4-4-4-4/6-6-6---------------------------|
D|4-4-4-4/6-6-6------------------------4-4-4-4/6-6-6---------------------------|

Outro:
e|---------------------------------------------------------------------------|X3
B|---------------------------------------------------------------------------|
G|---------------------------------------------------------------------------|
D|1-0-1-1-0-1--2-2-----------------------------------------------------------|
A|1-0-1-1-0-1--2-2-----------------------------------------------------------|
D|1-0-1-1-0-1--2-2-----------------------------------------------------------|

e|---------------------------------------------------------------------------|
B|---------------------------------------------------------------------------|
G|---------------------------------------------------------------------------|
D|1-0-1-1-0-1----------------------------------------------------------------|
A|1-0-1-1-0-1----------------------------------------------------------------|
D|1-0-1-1-0-1----------------------------------------------------------------|

Awesome Song, Enjoy!

| Pm palm mute
| /  slide up
| \  slide down
| h  hammer-on
| p  pull-off
| ~  vibrato
| +  harmonic
| x  Mute note
===============================================================================





Comments


Popular Uverworld tabs & chords
Colors Of The Heart Chords
Colours Of The Heart Chords
Mikageishi Chords
Qualia Chords
D-tecnolife 1 Tabs
Chance Ukulele
D-technolife Ukulele
Mikageishi Ukulele
Oto No Ha Ukulele
Qualia Ukulele


Song lyrics



↑ Back to top | Tablatures and chords are parodies/interpretations of the original songs. You may use it for private study, scholarship, research or language learning purposes only
© 2014 AZChords.com Contact us | Privacy policy | DMCA | Add/correct tabs | Request tabs | Top 50 tabs