» » »

Usher David, F Train Tabs (ver.1)

Artists:  A B C D E F G H I J K L M N O P Q R S T U V W X Y Z # 

F Train Tabs (ver.1)

Usher David Tabs
Rating:
0/5 (0 votes)
F Train lessons Tabs too difficult? Try these video lessons and learn fast
                Modified by: Derek Ong 


Intro:

e--------------|--------------|--------------|--------------|
B--------3-----|--------3-----|--------3-----|--------3-----|
G-----2-----2--|-----2-----2--|-----2-----2--|-----0-----0--|
D--0-----------|--4-----------|--------------|--2-----------|
A--------------|--------------|--4-----------|--------------|
E--------------|--------------|--------------|--------------|

e--------------|--------------|--------------|--------------|
B--------3-----|--------3-----|--------3-----|--------3-----|
G-----0-----0--|-----0-----0--|-----0-----0--|-----0-----0--|
D--------------|--0-----------|--------------|--0-----------|
A--2-----------|--------------|--2-----------|--------------|
E--------------|--------------|--------------|--------------|



Verse:

e--------------|--------------|--------------|--------------|
B--------3-----|--------3-----|--------3-----|--------3-----|
G-----2-----2--|-----2-----2--|-----2-----2--|-----2-----2--|
D--0-----------|--4-----------|--0-----------|--4-----------|
A--------------|--------------|--------------|--------------|
E--------------|--------------|--------------|--------------|

   traveled    on       the      f  train       down  the

e--------------|--------------|--------------|--------------|
B--------3-----|--------3-----|--------3-----|--------3-----|
G-----2-----2--|-----0-----0--|-----2-----2--|-----0-----0--|
D--------------|--2-----------|--------------|--2-----------|
A--4-----------|--------------|--4-----------|--------------|
E--------------|--------------|--------------|--------------|

   people         press   and    crowd   they   start   to

e--------------|--------------|--------------|--------------|
B--------3-----|--------3-----|--------3-----|--------3-----|
G-----0-----0--|-----0-----0--|-----0-----0--|-----0-----0--|
D--------------|--0-----------|--------------|--0-----------|
A--2-----------|--------------|--2-----------|--------------|
E--------------|--------------|--------------|--------------|

   fade   like    footprints     worn     away

e--------------|--------------|--------------|--------------|
B--------3-----|--------3-----|--------3-----|--------3-----|
G-----0-----0--|-----0-----0--|-----0-----0--|-----0-----0--|
D--2-----------|--2-----------|--2-----------|--2-----------|
A--------------|--------------|--------------|--------------|
E--------------|--------------|--------------|--------------|

   only           stop  and      still I'm      waiting


Repeat until 2nd 'we may still get by', then do the intro twice. Then keep going
until 'we may still get by' again. There's only four fingerings, listen to the
song and feel it out.
Here's the rest of the lyrics where the beginning of the line is the beginning
of each fingering.


traveled on the f train down the
people press and crowd they start to 
fade like footprints worn away
only stop and still i'm waiting
a thousand faces look the same
everyone a thousand different
names they come on two by two
people fade as people do
came here of my own volition
could be my decision
could be
we may still get by
we may still get by

wandered down on avenue a the
coffee shops the sweet cache of
thoughts and words and laughter gone
never ending stream of what you've
known so long and long ignored don't
think so hard just smoke your cigarette
and fade off into blue cause
people fade as people always do

consequence comes crashing in the
scars and scr*pes and scratches all the
memories died so long ago
time is up but still i'm waiting
came here of my own volition
could be indecision could be
we may still get by
we may still get by


*******************
*It sounds almost right. It's just my version of it. Minor differences really, but it sounds just as good. 
*great song btw. - Derek
*******************
* If any of this is wrong, it's because I'm doing this from memory without a
guitar in front of me.
* for links to more Tab sites, more Tab, and just a whole lot more, go to
            
Submit corrections

comments powered by Disqus
↑ Back to top | Usher David Tabs for F Train. Lyrics for acoustic guitar and electric guitar. Tablatures and chords are parodies/interpretations of the original songs. You may use it for private study, scholarship, research or language learning purposes only