» » »

Usher, Dj Got Us Fallin’ In Love Tabs (ver.1)

Artists:  A B C D E F G H I J K L M N O P Q R S T U V W X Y Z # 

Dj Got Us Fallin’ In Love Tabs (ver.1)

Usher Tabs
 Rating:
4/5 (4 votes)
Dj Got Us Fallin’ In Love lessons Tabs too difficult? Try these video lessons and learn fast
                Capo 3th position

Main riff:

E |----------------------------------------------------------|
B |----------0---0---------0---0---------0---0---------0---0-|
G |-0--0--0--0---0---------0---0---------0---0---------0---0-|
D |-2--2--2-------4--4--4-------2--2--2-------2--2--2--------|
A |---------------5--5--5-------3--3--3-------3--3--3--------|
e |----------------------------------------------------------|

Melody (not finished yet):

E |----------------------------------------------------------|
B |---0-0-0-0-----------------0-----------0-----------0------|
G |-----------2-2---2-2-2-2-2---0------0-----------0---------|  X2
D |---------------------------------2---------2---2----------|
A |----------------------------------------------------------|
e |----------------------------------------------------------|

E |---------------------------------------------------|
B |-0--------------------0-1-0------------------0-----|
G |----0---0-2-2-2---2-2--------0-----2-2-2---2---0---|
D |-------------------------------------------------4-|
A |---------------------------------------------------|
e |---------------------------------------------------|

E |-----------------------------------------------------0-0-2-3-|
B |---0-0-0-0-----------------0-----------0----------0----------|
G |-----------2-2---2-2-2-2-2---0------0-----------0------------|  
D |---------------------------------2---------2---2-------------|
A |-------------------------------------------------------------|
e |-------------------------------------------------------------|
            
Submit corrections

comments powered by Disqus
↑ Back to top | Usher Tabs for Dj Got Us Fallin’ In Love. Lyrics for acoustic guitar and electric guitar. Tablatures and chords are parodies/interpretations of the original songs. You may use it for private study, scholarship, research or language learning purposes only