>
 >
Burn

Burn Guitar Tabs

Usher - Burn chords, tabs, tablatures, lyrics

Guitar lessons | Add/correct | Request | Top 50 tabs Artists:  A B C D E F G H I J K L M N O P Q R S T U V W X Y Z 0-9

Burn Guitar Tabs – Usher

CD, Sheet music, Poster

Do you like Burn? Share with your friends now
ChordsChords v2Chords v3Chords v4TabsTabs v2Tabs v3Tabs v4Ukulele

Tuning: This version a half of step higher which means it is tune shape, but if you want 
match the song tune your guitar flat so it will be like: Eb Bb Gb Db Ab Eb


(Entro]
e--------4-------------9-----------------------|
B---4/6-------4--4/6------6---4--7--4h6p4--4---|
G----------6----------------------------------6|
D----------------------------------------------|
A----------------------------------------------|
E----------------------------------------------|

Main]

e----------------4----------------------------------------7/8--|
B-----------4/6-------------4--4/6------4---4/6-----6--9-------|
G--6-----6------------6--6-----------------------6-------------|
D-----6----------------------------8---------------------------|
A--------------------------------------------------------------|
E--------------------------------------------------------------|

e---------------------------------|
B---9-----4/6---4---7--4h6p4--4---|
G------6-------------------------6|
D---------------------------------|
A---------------------------------|
E---------------------------------|

verse 1
     D(add9)                   Bm7                G(add9)
e|---------------------------------------------------------------------------|
B|-------7-5-5-5---5---------7-5-5-5---5-------------------5-----------------|
G|--7-7----------7---7-----7---------7---7-----------4-7-7---7---------------|
D|---------------------------------------------7-7---------------------------|
A|---------------------------------------------------------------------------|
E|---------------------------------------------------------------------------|
 It gon' burn for me to say this. Its comin from my heart. It been a long time comin

                            D(add9)              Bm7
e|----------------------------------5----------------------------------------|
B|--------7-5-5---5-------------7-7-----5---------------------5--------------|
G|------4-------7---7-----7-7-7-------7-----------4-7-4-7-7-4---4------------|
D|--7-7---------------------------------------7-7----------------------------|
A|---------------------------------------------------------------------------|
E|---------------------------------------------------------------------------|
 But we done been full apart. I really want to work this out. But I dont think you re gonna change

      G(add9)               Em7       A         D(add9)       Bm7
e|---------------------------------------------7-5-5-5---5/10-9-7-5-5--------|
B|--7-----7------------5-5-5---7-8-7-5-----------------7---------------------|
G|----7-4---7--7-7-4-7-------7---------7-----7-------------------------------|
D|---------------------------------------------------------------------------|
A|---------------------------------------------------------------------------|
E|---------------------------------------------------------------------------|
 I do but u dont. Think its best we go our seperate ways. Tell me why I should stay in 
relationship.

     G(add9)                         D(add9)     Bm7
e|--7-5-5-5-----5-7-5-5-5-----5-----7-5-5-5-----5/10-9p7-9p7-9-7-5-5---------|
B|------------7-------------7-----------------7------------------------------|
G|----------7-------------7-----------------7--------------------------------|
D|---------------------------------------------------------------------------|
A|---------------------------------------------------------------------------|
E|---------------------------------------------------------------------------|
 When Im hurtin baby? I aint happy baby. Plus there's so many other things I gotta deal with.


Chorus
    G(add9)      Em7    A       D(add9)         G(add9)
e|--5-5-------------------------------------------------------------------------|
B|------8-7-7-5-------5-------------------------7-------5-----------------------|
G|--------------7-7-----7-----7-7---7-7-7-7-7----7-7------7-------7--4---4---7--|
D|--------------------------------7-------------------7-------7-7------7---7----|
A|------------------------------------------------------------------------------|
E|------------------------------------------------------------------------------|
 I think that you should let it burn. WHen the feelin aint the same in your body. Dont 
to, but you know, gotta let it go.


             D(add9)            Bm7         G(add9)
e|------------5-5-5-5-5-------9-9-9-9/10-9-7---5------------------------------|
B|----7-----------------7--------------------7-5-7--7-5------------5----------|
G|--7---7-7-7-------------------------------------------7--7-7-7-7---7--------|
D|----------------------------------------------------------------------------|
A|----------------------------------------------------------------------------|
E|----------------------------------------------------------------------------|
 Cause the party aint jumpin like it use to. Even though this might bruise you/ Let it 
let it burn, gotta let it burn.


    D(add9)     Bm7      G(add9)            D(add9)           Bm7
e|--------------------------------------------5-5-----5-5------9-7-5---5-5---|
B|--7-5-----------5-7----7-7---------------5-7----8-7------7---------7-------|
G|------7-7-7-7-7-----------7-7-7-7-7-7-7------------------------------------|
D|---------------------------------------------------------------------------|
A|---------------------------------------------------------------------------|
E|---------------------------------------------------------------------------|
 Deep down u know it best for you cept' but hate the thought of her being with someone 
But you know that its over. You knowd it was through


  G(add9)          Em7  A
e|--5------------------------------------------------------------------------|
B|----7-5-7-7---7-5---5-5----------------------------------------------------|
G|------------------7-------7-7-7-7-7----------------------------------------|
D|---------------------------------------------------------------------------|
A|---------------------------------------------------------------------------|
E|---------------------------------------------------------------------------|
 Let it burn. Gotta let it burn.

Verse 2
    D(add9)              Bm7               NC
e|--5-------------------------------5----------------------------------------|
B|----8-7-5-5---5------------------------------------------------------------|
G|------------7---7-------4-7-7-4-----7-----7-7-7-7-7-----------7-7----------|
D|----------------------7---------7-----7-7-----------7-7-7-7-7-----7--------|
A|---------------------------------------------------------------------------|
E|---------------------------------------------------------------------------|
 Sendin pages I aint suppose to. Got somebody her but I want you. Cause the feelin aint 
same. Findin myself callin her your name.


           D(add9)        Bm7               G(add9)
e|---------------------------------------5-----------------------------------|
B|-----------------------------------------8-7--5-5-----------5-7------------|
G|----------7-----------------7---------------7-----------4-7----------------|
D|--7-7-7-7---9--7-7--7-7-7-7---9-7-7----------------7-7---------------------|
A|---------------------------------------------------------------------------|
E|---------------------------------------------------------------------------|
 Ladies tell me do u understand? Fellas do u feel my pain? Its the way I feel. I knew I made a mistake.

      Em7     A                D(add9)    Bm7                 G(add9)
e|------------------------------------------------------5--------------------|
B|------5-7-7--------5-5----------------------------------8-7----------------|
G|--4-7----------4-7-----7----7-7-777----------------------------------------|
D|-----------7-7----------------------7---7-7-7-9-9-7-7-------7--------------|
A|---------------------------------------------------------------------------|
E|---------------------------------------------------------------------------|
 Now its too late. I know she aint comin back. What I gotta do now to get my shortie 
ooh ooh ooh ooh.

                     D(add9)         Bm7   G(add9)  NC
e|---------------------5-----------------------------------------------------|
B|-----------------------8-7---------------7-7-7-7-----7-7-7-7---------------|
G|-----------------------------7-----7-7-7---------7-7---------7-------------|
D|--7-7-7-7-7-7-7-7-7--------7-----------------------------------------------|
A|---------------------------------------------------------------------------|
E|---------------------------------------------------------------------------|
 Man I dont know what Im gonna do without my boo___. You've been gone for too long. It 
fifty eleven days, umteen hours.

  Em7         A
e|-------------------7-------------------------------------------------------|
B|--7-7-7-7-----5-7----------------------------------------------------------|
G|----------7-7--------------------------------------------------------------|
D|---------------------------------------------------------------------------|
A|---------------------------------------------------------------------------|
E|---------------------------------------------------------------------------|
 Im been burnin til you return.

Chorus
    G(add9)      Em7    A       D(add9)         G(add9)
e|--5-5-------------------------------------------------------------------------|
B|------8-7-7-5-------5-------------------------7-------5-----------------------|
G|--------------7-7-----7-----7-7---7-7-7-7-7----7-7------7-------7--4---4---7--|
D|--------------------------------7-------------------7-------7-7------7---7----|
A|------------------------------------------------------------------------------|
E|------------------------------------------------------------------------------|
 I think that you should let it burn. WHen the feelin aint the same in your body. Dont 
to, but you know, gotta let it go.


             D(add9)            Bm7         G(add9)
e|------------5-5-5-5-5-------9-9-9-9/10-9-7---5------------------------------|
B|----7-----------------7--------------------7-5-7--7-5------------5----------|
G|--7---7-7-7-------------------------------------------7--7-7-7-7---7--------|
D|----------------------------------------------------------------------------|
A|----------------------------------------------------------------------------|
E|----------------------------------------------------------------------------|
 Cause the party aint jumpin like it use to. Even though this might bruise you/ Let it 
let it burn, gotta let it burn.


    D(add9)     Bm7      G(add9)            D(add9)           Bm7
e|--------------------------------------------5-5-----5-5------9-7-5---5-5---|
B|--7-5-----------5-7----7-7---------------5-7----8-7------7---------7-------|
G|------7-7-7-7-7-----------7-7-7-7-7-7-7------------------------------------|
D|---------------------------------------------------------------------------|
A|---------------------------------------------------------------------------|
E|---------------------------------------------------------------------------|
 Deep down u know it best for you cept' but hate the thought of her being with someone 
But you know that its over. You knowd it was through


  G(add9)          Em7  A
e|--5------------------------------------------------------------------------|
B|----7-5-7-7---7-5---5-5----------------------------------------------------|
G|------------------7-------7-7-7-7-7----------------------------------------|
D|---------------------------------------------------------------------------|
A|---------------------------------------------------------------------------|
E|---------------------------------------------------------------------------|
 Let it burn. Gotta let it burn.

Bridge
   D(add9)            Bm7               G(add9)
e|-----------------------------------------------------5-------------5----------|
B|--7-5-----7-5-----------------------7--------------7---8-7-5---------8-7-5----|
G|------7-------7-7-4---7-----7-4-7-7------------4-7-----------7-7-7------------|
D|--------7-----------7---9-7--------------7-7-7--------------------------------|
A|------------------------------------------------------------------------------|
E|------------------------------------------------------------------------------|
 Im twisted cause one side of me tellin me that I need to move on. On the other side I 
break down and cry, oh.


   D(add9)            Bm7               G(add9)
e|-----------------------------------------------------5---------------------|
B|--7-5-----7-5-----------------------7--------------7---8-7-5---------------|
G|------7-------7-7-4---7-----7-4-7-7------------4-7-----------7-7-7---------|
D|--------7-----------7---9-7--------------7-7-7-----------------------------|
A|---------------------------------------------------------------------------|
E|---------------------------------------------------------------------------|
 Im twisted cause one side of me tellin me that I need to move on. On the other side I 
break down and cry, yeah.


    NC
e|--7-5---7-5---7-5--------------------7-5---7-5-7---------5--------5--------5-------------7-----|
B|------7-----7-----7---------5-7-7--------7-------7---------7-7-7----7-7-7----7-7-7---5-7-------|
G|------------------------4-7--------------------------------------------------------7-----------|
D|----------------------7------------------------------------------------------------------------|
A|-----------------------------------------------------------------------------------------------|
E|-----------------------------------------------------------------------------------------------|
 oh oh oh oh oh oh, oh oh oh. Can u feel me burin? oh oh oh oh ohoh. So many days so 
hours Im still burin til you return.

Chorus
    G(add9)      Em7    A       D(add9)         G(add9)
e|--5-5-------------------------------------------------------------------------|
B|------8-7-7-5-------5-------------------------7-------5-----------------------|
G|--------------7-7-----7-----7-7---7-7-7-7-7----7-7------7-------7--4---4---7--|
D|--------------------------------7-------------------7-------7-7------7---7----|
A|------------------------------------------------------------------------------|
E|------------------------------------------------------------------------------|
 I think that you should let it burn. WHen the feelin aint the same in your body. Dont 
to, but you know, gotta let it go.


             D(add9)            Bm7         G(add9)
e|------------5-5-5-5-5-------9-9-9-9/10-9-7---5------------------------------|
B|----7-----------------7--------------------7-5-7--7-5------------5----------|
G|--7---7-7-7-------------------------------------------7--7-7-7-7---7--------|
D|----------------------------------------------------------------------------|
A|----------------------------------------------------------------------------|
E|----------------------------------------------------------------------------|
 Cause the party aint jumpin like it use to. Even though this might bruise you/ Let it 
let it burn, gotta let it burn.


    D(add9)     Bm7      G(add9)            D(add9)           Bm7
e|--------------------------------------------5-5-----5-5------9-7-5---5-5---|
B|--7-5-----------5-7----7-7---------------5-7----8-7------7---------7-------|
G|------7-7-7-7-7-----------7-7-7-7-7-7-7------------------------------------|
D|---------------------------------------------------------------------------|
A|---------------------------------------------------------------------------|
E|---------------------------------------------------------------------------|
 Deep down u know it best for you cept' but hate the thought of her being with someone 
But you know that its over. You knowd it was through


  G(add9)          Em7  A
e|--5------------------------------------------------------------------------|
B|----7-5-7-7---7-5---5-5----------------------------------------------------|
G|------------------7-------7-7-7-7-7----------------------------------------|
D|---------------------------------------------------------------------------|
A|---------------------------------------------------------------------------|
E|---------------------------------------------------------------------------|
 Let it burn. Gotta let it burn.



| /  slide up
| \  slide down
| h  hammer-on
| p  pull-off
| ~  vibrato
| +  harmonic
| x  Mute note
====================================================================





Comments


Popular Usher tabs & chords
Dj Got Us Falling In Love Again 3 Chords
Lets Make Love In This Club Chords
Make Love In This Club 1 Chords
Confessions Part Ii Tabs
U Make Me Wanna Tabs
Djs Got Us Falling In Love Again Ukulele
His Mistakes Ukulele
More Ukulele
Nice Slow Ukulele
U Remind Me Ukulele


Song lyrics



↑ Back to top | Tablatures and chords are parodies/interpretations of the original songs. You may use it for private study, scholarship, research or language learning purposes only
© 2014 AZChords.com Contact us | Privacy policy | DMCA | Add/correct tabs | Request tabs | Top 50 tabs