» » »

Useless Id, Working Jerk Tabs (ver.1)

Artists:  A B C D E F G H I J K L M N O P Q R S T U V W X Y Z # 

Working Jerk Tabs (ver.1)

Useless Id Tabs
Rating:
0/5 (0 votes)
Hard to play? Try these video lessons and learn fast.
                
Note              : *=palm mute
Tuning            : Standard


[Intro]
e|-------------------------------------------------------------------------|
B|-------------------------------------------------5h6p5-------------------|
G|----5----------------4-------5------------------------------5------------|
D|------x 15 then-----------------x 7 then--------------------5------------|
A|-33*-------------33*----33*---------------33*---------------3------------|
E|-------------------------------------------------------------------------|


[verse 1 (pt. 1)]
e|-------------------------------------------------------------------------|
B|-------------------------------------------------------------------------|
G|--------------------9-7-5-4----------------------------------------------|
D|-10-9-7-555-333-555-x-x-x-x----------------------------------------------¦
A|-10-9-7-555-333-555-7-5-3-2----------------------------------------------|
E|- 8-7-5-333-555-777------------------------------------------------------|
            

comments powered by Disqus
↑ Back to top | Useless Id Tabs for Working Jerk. Lyrics for acoustic guitar and electric guitar. Tablatures and chords are parodies/interpretations of the original songs. You may use it for private study, scholarship, research or language learning purposes only