» » »

Useless Id, Weird Rock Bass tabs (ver.1)

Artists:  A B C D E F G H I J K L M N O P Q R S T U V W X Y Z # 

Weird Rock Bass tabs (ver.1)

Useless Id Tabs
Rating:
0/5 (0 votes)
Weird Rock lessons Tabs too difficult? Try these video lessons and learn fast
                ++++++++++++++++++++++++++
| Useless ID- Weird Rock |
++++++++++++++++++++++++++

Dedicated 
to Weirdo
Not for the lyrics, 
for the name of the song
Hey man, cheer up
I know its not your fault being so weird

Tuning: EADG

Intro
1.
G|--------------------------------------------------|
D|--------------------------------------------------|
A|----------3x----------------------------0000------|
E|-44444444-----------3333-1111-0000-0000------1111-|

2.
G|-----------------------------------------|
D|-----------------------------------------|
A|-3333-3333---------------------0000------|
E|-----------3333-1111-0000-0000------1111-|

Verse
"You gave me winter day..."
3.
G|---------------------------------------------------------------------------------|
D|---------------------------------------------------------------------------------|
A|-3333-3333---------------------0000------3333-3333---------------------0000------|
E|-----------3333-1111-0000-0000------1111-----------3333-1111-0000-0000------1111-|

Pre-Chorus
"Weird rock, all night..."
4.
G|---------------------------------------------|
D|---------------------------------------------|
A|-3333-3333-----------------------------------|
E|-----------4444-4444-5x---5-3x---3-1-1-1~----|

Chorus
"You and me..."
5.
G|--------------------------------------------------------------------------|
D|--------------------------------------------------------------------------|
A|-33333333-33333333--------------------------------------------------------|
E|-------------------33333333-33333333-55555555-33333333-11111111-11111-333-|

"All the time..."
6.
G|--------------------------------------------------------------------------|
D|--------------------------------------------------------------------------|
A|-33333333-33333333--------------------------------------------------------|
E|-------------------00000000-00000000-11111111-33333333-11111111-3~--------|

Verse

Bass silents for a bit
and comes back at

"I woke up without you..."
7.
G|-------------|
D|-------------|
A|-000x--------|
E|-------111x--|

Pre-Chorus
"Weird rock, all night..."
8.
G|-------------------------------------------|
D|-------------------------------------------|
A|-3333-3333---------------------------------|
E|-----------4444-4444-55x---33x---1-1-1~----|

Chorus
"You and me..."
9.
G|--------------------------------------------------------------------------|
D|--------------------------------------------------------------------------|
A|-33333333-33333333--------------------------------------------------------|
E|-------------------33333333-33333333-55555555-33333333-11111111-11111-333-|

"All the time..."
10.
G|--------------------------------------------------------------------------|
D|--------------------------------------------------------------------------|
A|-33333333-33333333--------------------------------------------------------|
E|-------------------00000000-00000000-11111111-33333333-11111111-3~--------|

Bridge
11.
G|-------------------------------------|
D|-------------------------------------|
A|-------------------------------------|--x3
E|-0-0-0-0-0-55~-5-5-1-1-1-1-1-33~-3-3-|

12.
G|-----------------------------------------------|
D|-----------------------------------------------|
A|--------------------------------------------3x-|
E|-0-0-0-0-0-55~-5-5-1-1-1-1-1-1-1-1-44444444----|

Lyrics:

You gave me winter day.
Oh, that's why I loved you.
You made it all the way home, so that I would find you.

Weird rock, all night.
It was all we wanted.
But, you and me were always meant to be a novelty.
I'm loss for words and you are lost in me, lost in me again.
All the time I've been through hell.
You weren't even mine.
If you change your mind I won't be around, I won't be around.

You made me fade away from the pepole who hate you.
You took your stuff today then I woke up without you.

+++++++++++++++++++++++++++++++++
| RaiLeff                       |
+++++++++++++++++++++++++++++++++
            
Submit corrections

comments powered by Disqus
↑ Back to top | Useless Id Bass for Weird Rock. Lyrics for acoustic guitar and electric guitar. Tablatures and chords are parodies/interpretations of the original songs. You may use it for private study, scholarship, research or language learning purposes only