» » »

Useless Id, Unhappy Hour Bass tabs (ver.1)

Artists:  A B C D E F G H I J K L M N O P Q R S T U V W X Y Z # 

Unhappy Hour Bass tabs (ver.1)

Useless Id Tabs
Rating:
0/5 (0 votes)
Unhappy Hour lessons Tabs too difficult? Try these video lessons and learn fast
                ++++++++++++++++++++++++++++
| Useless ID- Unhappy Hour |
++++++++++++++++++++++++++++


"No vacation from this f**ked up world..."

Tuning: Standard EADG



Verse
"Would you go with me..."
1.
G|-------------------------------------------------------------------|
D|-------------------------------------------------------------------|
A|---------00-000-0------------22-244-444-400-000-022-222-22x--------|
E|-00-000-0--------00-000-000-0--------------------------------------|

"Cleaning up would be hard..."
2.
G|-------------------------------------------------------------------|
D|-------------------------------------------------------------------|
A|---------00-000-0----22-244-444-400-000-000-000-022-222-2----------|
E|-00-000-0--------00-0------------------------------------4x--------|

Chorus
"How can anything go right..."
3.
G|---------------------------------------------------------------------|
D|-----------------22-211-1--------------------------------1-1x--------|
A|-00-000-022-222-2--------44-422-200-000-0----------------------------|
E|-----------------------------------------44-444-422-222-2------------|

Outro
4.
G|------------------------------------------------------------------|
D|------------------------------------------------------------------|
A|---------22-222-244-444-400-000-0--------22-222-244-444-400-000-0-|
E|-00-000-0------------------------00-000-0-------------------------|

5.
G|---------------------------|
D|---------------------------|
A|-------4~----0~----2-2x----|
E|-0~------------------------|

Verse
"Winter day screams me up..."
6.
G|-------------------------------------------------------------------|
D|-------------------------------------------------------------------|
A|---------00-000-0------------22-244-444-400-000-022-222-2233-333-3-|
E|-00-000-0--------00-000-000-0--------------------------------------|

Chorus
"So now you know..."
7.
G|-------------------------------------------------------|
D|-------------------------------------------------------|
A|-44-444-4----------------44-444-4----------------0~----|
E|---------00-000-022-222-2--------22-222-222-222-2------|

Outro
8.
G|---------|
D|-2-2x----|
A|---------|
E|---------|


Please rate thank you!!

Lyrics:

Would you go with me to unhappy hour? 
have a dink' pass out on the floor.
Cleaning up would be hard, get a ride home.
Fall asleep alone, wake up and smile.

Now you wonder...
How could anything go right in such a f**ked up world, 
where logic doesn't play a role anymore?

Winter day screams me up in the morning. 
While insomnia kicks in at night.
Alright, so now you know you received it too.
No vacation from this f**ked up world!



+++++++++++++++++++++++++++++++++
| RaiLeff                       |
+++++++++++++++++++++++++++++++++
            

comments powered by Disqus
↑ Back to top | Useless Id Bass for Unhappy Hour. Lyrics for acoustic guitar and electric guitar. Tablatures and chords are parodies/interpretations of the original songs. You may use it for private study, scholarship, research or language learning purposes only