» » »

Turn Up The Stereo Tabs (ver.1)

Artists:  A B C D E F G H I J K L M N O P Q R S T U V W X Y Z # 

Turn Up The Stereo Tabs (ver.1)

Useless Id
Rating:
0/5 (0 votes)

Hard to play? Try these video lessons and learn fast.
                
opening:

Guitar 1:
--------------------------------|
--------------------------------|
777-----------------------------| >>>>> X4
777--777/999--444/555--444/777--|
555--777/999--444/555--444/777--|
-----555/777--222/333--222/555--|

Guitar 2:
------------------------------------------------------------------|
15-15-15-15-15-15-15-15-15-15-15-14-15-15-15-15-15-15-15-15-15-17-|
--14-14-14-14-14-14-14-14-14-14-14-14-14-14-14-14-14-14-14-14-14--|
------------------------------------------------------------------|
------------------------------------------------------------------|
------------------------------------------------------------------|

Verse:

D5 B5 G5 G5
D5 B5 G5 F#m E

Pre-Chorus:
---------------------|
---7-----6-----7-----|
9--7--7--6--9--7--7--|
9--5--7--4--9--5--7--|
7-----5-----7-----5--|
            
Hard to play? Try these video lessons and learn fast. | Correct




comments powered by Disqus
↑ Back to top | Tablatures and chords are parodies/interpretations of the original songs. You may use it for private study, scholarship, research or language learning purposes only