» » »

Useless Id, Too Late To Start Over Bass tabs (ver.1)

Artists:  A B C D E F G H I J K L M N O P Q R S T U V W X Y Z # 

Too Late To Start Over Bass tabs (ver.1)

Useless Id Tabs
 Rating:
4/5 (4 votes)
Too Late To Start Over lessons Tabs too difficult? Try these video lessons and learn fast
1
                ++++++++++++++++++++++++++++++++++++++
| Useless ID- Too Late To Start Over |
++++++++++++++++++++++++++++++++++++++


"Give me a pen and I'll write you a book of how we both f**ked up..."

Tuning: Standard EADG


Intro
1.
G|-----------------------------------------------------------------|
D|-----------------------------------------------------------------|
A|-------3x--------5-555-----------------3x--------5-555-7x--------|
E|-3-333-----------------0x--------3-333---------------------------|

Verse
"You know my story..."
2.
G|-----------------------------------------------------------------|
D|-----------------------------------------------------------------|
A|-------3x--------5-555-----------------3x--------5-555-7x--------|
E|-3-333-----------------0x--------3-333---------------------------|

"If I would lose you..."
3.
G|-----------------------------------------------------------|
D|-----------------------------------------------------------|
A|-------3x--------5-555-----------------3-3-333-5-555-77-22-|
E|-3-333-----------------0x--------3-333---------------------|

Chorus
"Lights out to expectations..."
4.
G|-------------------------------------------------------------------------------------|
D|-------------------------------------------------------------------------------------|
A|-3-3333-33-333-5-5555-55-555-----------------------------3-3333-33-333-5-5555-55-555-|
E|-----------------------------3-3333-33-333-0-0000-00-000-----------------------------|

Outro
5.
G|-------------------------------------------------------------|
D|-------------------------------------------------------------|
A|-------3-33-333-5-555----------------3-33-333-5-555-7-77-777-|
E|-3-333----------------0-00-000-3-333-------------------------|

Verse
"I know all about you..."
6.
G|-------------------------------------------------------------|
D|-------------------------------------------------------------|
A|-------3-33-333-5-555----------------3-33-333-5-555-7-77-777-|
E|-3-333----------------0-00-000-3-333-------------------------|

"Of how we both f**ked up..."
7.
G|----------------------------------------------------------|
D|----------------------------------------------------------|
A|-------3-33-333-5-555----------------3-33-333-5-555-77-22-|
E|-3-333----------------0-00-000-3-333----------------------|

Chorus
"I send you stationary..."
8.
G|-------------------------------------------------------------------------|
D|-------------------------------------------------------------------------|
A|-33333333-55555555-------------------33333333-55555555--------------2222-|
E|-------------------33333333-00000000-------------------33333333-0000-----|

When Yotam sings Inconclusion, the bass hits a Drop D, but it isnt that important lol
"Next morning inconclusion..."  
9.
G|-------------------------------------------------------------------------------------------|
D|-------------------------------------------------------------------------------------------|
A|-33333333-5x-------55-----------------------------22222222-3333x-3~--------3333x-6~--------|
E|-----------------------33333333-22222222-00000000------------------------------------------|

Outro
10.
G|-------------------------------------------------------------------------|
D|-------------------------------------------------------------------------|
A|----------------------------------------------22222222-33333333----------|
E|-0x----------------------------------00000000-------------------33333333-|

11.
G|-------------------------------------------------------------------------|
D|-------------------------------------------------------------------------|
A|----------22222222-33333333-------------------22222222-33333333----------|
E|-00000000-------------------33333333-00000000-------------------3333x----|

12.
G|-------------------------------------------------------------------------|
D|-------------------------------------------------------55555554-22222222-|
A|-22222202-33333320-------------------22222202-33333320-------------------|
E|-------------------33333332-00000000-------------------------------------|

13.
G|----------------------|
D|----------------------|
A|----------------------|
E|-333x-----------------|


Please rate thanks!!


Lyrics:

You know my story.
I've been telling it to anyone I could find.
If I would lose you, I'd lose my mind, 
over and over again until next time.

Lights out to expectations. 
Goodbye to bad intentions. 
There's nothing wrong with letting go.

I know all about you.
Give me a pen and I'll write you a book of how we both f**ked up, 
walked away, got back just in time to make up for the new years.

I send you stationary. 
It wasn't ordinary.
You got it and told me that everything would be O.K. 
Next morning came conclusion:
It's too late to start all over.
(Sorry about the past)



+++++++++++++++++++++++++++++++++
| RaiLeff                       |
+++++++++++++++++++++++++++++++++
            
Submit corrections

comments powered by Disqus
↑ Back to top | Useless Id Bass for Too Late To Start Over. Lyrics for acoustic guitar and electric guitar. 1 Tablatures and chords are parodies/interpretations of the original songs. You may use it for private study, scholarship, research or language learning purposes only