» » »

Useless Id, Suffer For The Fame Bass tabs (ver.1)

Artists:  A B C D E F G H I J K L M N O P Q R S T U V W X Y Z # 

Suffer For The Fame Bass tabs (ver.1)

Useless Id Tabs
 Rating:
4.2/5 (5 votes)
Suffer For The Fame lessons Tabs too difficult? Try these video lessons and learn fast
                +++++++++++++++++++++++++++++++++++
| Useless ID- Suffer For The Fame |
+++++++++++++++++++++++++++++++++++

Tuning: EADG

Intro
1.
G|-----------9~----------------9~------------------9~----------------9~-------|
D|-10~----------12~---9~-----------12~---10~----------12~---9~----------12~---|
A|-----12~---------------11~-----------------12~---------------11~------------|
E|----------------------------------------------------------------------------|

2.
G|-------------------------------------------------------------------------|
D|-------------------------------------------------------------------------|
A|-00000000----------------------------00000000----------------------------|
E|----------11111111-33333333-00000000----------11111111-33333333-44444444-|

3.
G|-------------|
D|-------------|
A|-0~-------0x-|
E|-------------|

Verse
"Dont surrender to the world..."
4.
G|-------------------------------------------------------------------------|
D|-------------------------------------------------------------------------|
A|-00000000-------------------3333--------------55555555-------------------|
E|----------11111111-33333333-----0000-11111111----------33333333-33333333-|

"Sweetness is leaving me again..."
5.
G|-------------------------------------------------------------------------|
D|-------------------------------------------------------------------------|
A|-00000000-------------------3333--------------55555555-------------------|
E|----------11111111-33333333-----0000-11111111----------33333333-3x-------|

Chorus
"Bring back the feeling, oh where are we now?..."
6.
G|---------------------------------------------------------------------------------|
D|---------------------------------------------------------------------------------|
A|-----------------------------------------------------------------------0~-0~-0~--|
E|-1~-1~-1~--3~-3~-3~--0~-0~-0~--1~-1~-1~--1~-1~-1~--3~-3~-3~--0~-0~-0~------------|

"Lose star connection to better us all..."
7.
G|--------------------------------------------------------------------|
D|--------------------------------------------------------------------|
A|----------------------------00000000--------------------0~-0~----0x-|
E|-11111111-33333333-00000000----------11111111-3~-3~-3~--------3~----|

Verse
"Face, listen to the one..."
8.
G|-------------------------------------------------------------------------|
D|-------------------------------------------------------------------------|
A|-00000000-------------------3333--------------55555555-------------------|
E|----------11111111-33333333-----0000-11111111----------33333333-3x-------|

"Its too late..."
9.
G|-------------------------------------------------------------------------|
D|-------------------------------------------------------------------------|
A|-00000000-------------------3333--------------55555555-------------------|
E|----------11111111-33333333-----0000-11111111----------33333333-0x-0x-0x-|

Chorus
"Bring back the feeling of "Where are we now?"..."
10.
G|---------------------------------------------------------------------------------|
D|---------------------------------------------------------------------------------|
A|-----------------------------------------------------------------------0~-0~-0~--|
E|-1~-1~-1~--3~-3~-3~--0~-0~-0~--1~-1~-1~--1~-1~-1~--3~-3~-3~--0~-0~-0~------------|

"Lose star connection to better us all..."
11.
G|-------------------------------------------------------------|
D|-------------------------------------------------------------|
A|----------------------------00000000--------------------0~---|
E|-11111111-33333333-00000000----------11111111-3~-3~-3~-------|

Bridge
"I dont want it in my world..."
12.
G|-----------9~----------------9~------------------9~--------------------------|
D|-10~----------12~---9~-----------12~---10~----------12~---9~-------10~-12~---|
A|-----12~---------------11~-----------------12~---------------11~-------------|
E|-----------------------------------------------------------------------------|

13.
G|-----------9~----------------9~------------------9~------------------------|
D|-10~----------12~---9~-----------12~---10~----------12~---9~---------------|
A|-----12~---------------11~-----------------12~---------------11~-----------|
E|-------------------------------------------------------------------0~--4~--|

"I dont want it in my world..."
14.
G|----------------------------------------------------------------|
D|---------------------------------------------------2-0----------|
A|-0~---------------------------0~-----------------------3-2-3-0~-|
E|------0-1~---1-3xxxxx-0~--4~-------0-1~---1-3xxxxx--------------|

"I dont want it in my world..."
15.
G|-----------------------------------------------------------------------|
D|-----------------------------------------------------------------------|
A|-00000000----------------------------00000000--------------------------|
E|----------11111111-33333333-00004444----------11111111-33333333-00004x-|

Chorus
"Bring back the feeling of "Where are we now?"..."
16.
G|---------------------------------------------------------------------------------|
D|---------------------------------------------------------------------------------|
A|-----------------------------------------------------------------------0~-0~-0~--|
E|-1~-1~-1~--3~-3~-3~--0~-0~-0~--1~-1~-1~--1~-1~-1~--3~-3~-3~--0~-0~-0~------------|

"Lose star connection to better us all..."
17.
G|-------------------------------------------------------|
D|-------------------------------------------------------|
A|----------------------------00000000-------------------|
E|-11111111-33333333-00000000----------11111111-3~-3~-3~-|

"Change!!"
18.
G|-------------|
D|-------------|
A|-0~-0~----0x-|
E|-------3~----|

Lyrics: 

Dont surrender to the world
Let me know you won't
Suffer for the fame

Sweetness is leaving me again
I'll remember when
When we used to be

Bring back the feeling
Oh, where are we now?
Stuck in a moment till we meet again
Lose star connection to better us all
Then maybe something will change

Face, listen to the one
Voice inside the crowd
Make somebody proud
It's too late to leave me with a gift
But i'll leave you with this
A song on how it is

I don't want it in my world

+++++++++++++++++++++++++++++++++
| RaiLeff                       |
+++++++++++++++++++++++++++++++++
            
Submit corrections

comments powered by Disqus
↑ Back to top | Useless Id Bass for Suffer For The Fame. Lyrics for acoustic guitar and electric guitar. Tablatures and chords are parodies/interpretations of the original songs. You may use it for private study, scholarship, research or language learning purposes only