» » »

Stuck Without A Ride Bass tabs (ver.1)

Artists:  A B C D E F G H I J K L M N O P Q R S T U V W X Y Z # 

Stuck Without A Ride Bass tabs (ver.1)

Useless Id
Rating:
0/5 (0 votes)

Tabs too difficult? Try these video lessons and learn fast.
                ++++++++++++++++++++++++++++++++++++
| Useless ID- Stuck Without A Ride |
++++++++++++++++++++++++++++++++++++

EADG

0:23
Intro
"Its allright..."
1.
G|----------------------------------|
D|----------------------------------|
A|----------------------------------|
E|-33-333-333-333-333-333-333-333-3-|

Chorus
"There is nothing in your heart..."
2.
G|------------------------------------------------------------------|
D|------------------------------------------------------------------|
A|-33-333-322-222-200-000-0--------33-333-3-------------------------|
E|-------------------------11-111-1--------00-000-055-555-511-111-1-|

Verse
"Sort of like a star..." 
3.
G|------------------------------------------------------------------|
D|------------------------------------------------------------------|
A|-33-333-322-222-211-111-1-----------------------------------------|
E|-------------------------11-111-133-333-333-333-333-333-333-333-3-|

Pre-Chorus
"So if you give up..."
4.
G|------------------------------------------------------------------|
D|------------------------------------------------------------------|
A|------------------------------------------------------------------|
E|-55-555-555-555-533-333-333-333-311-111-111-111-133-333-333-333-3-|

"Im not listening..."
5.
G|---------------------------------------------------------------------|
D|---------------------------------------------------------------------|
A|------------------------------------------------------------------3x-|
E|-55-555-555-555-533-333-333-333-311-111-111-111-133-333-333-333-3----|

Chorus
"And you'll be stuck without a ride..."
6.
G|-------------------------------------------------------------------------|
D|-------------------------------------------------------------------------|
A|-------------33-3333-22-2222-00-0000-------33-3333-22-2222-00-0000-------|
E|-1x----3x----------------------------11-33-------------------------11-33-|

Outro
7.
G|----------------------------------------------------------------------------------|
D|----------------------------------------------------------------------------------|
A|-3-3-3333-2-2-2222-0-0-0000----------3-3-3333-2-2-2222-0-0-0000-----------3x--33x-|
E|----------------------------11-133-3----------------------------11-1333-3---------|

Lyrics:

Always looking for despire when you are complicating.
Things that don't exist in there, somehow deserve berating.
As everybody laughs can't look them in the eye. It's alright.
There is nothing in your heart that can't stay forever.
Surprised at what you pull apart until it stays together.
Sort of like a star that's clearly lost it's shine tonight, it's not bright.

So when you give up, don't expect me to be around again.
Because you lost yourself and you lost a friend.
I'm not listening anymore.
So when you come knocking on my door,
I'll be gone somewhere inside and you'll be stuck without a ride.
I'll be gone somewhere inside and you'll be stuck without a ride.
I'll be gone somewhere inside and you'll be stuck without a ride.

and you'll be stuck without a ride.
and you'll be stuck without a ride.

+++++++++++++++++++++++++++++++++
| RaiLeff                       |
+++++++++++++++++++++++++++++++++
            
Tabs too difficult? Try these video lessons and learn fast.




comments powered by Disqus
↑ Back to top | Tablatures and chords are parodies/interpretations of the original songs. You may use it for private study, scholarship, research or language learning purposes only